  0
SECTION
  2
HEADER
  9
$ACADVER
  1
AC1027
  9
$ACADMAINTVER
 70
   125
  9
$DWGCODEPAGE
  3
ANSI_1252
  9
$LASTSAVEDBY
  1
21704
  9
$REQUIREDVERSIONS
160
                 0
  9
$INSBASE
 10
0.0
 20
0.0
 30
0.0
  9
$EXTMIN
 10
-74.48698838502855
 20
-644.2402156561455
 30
-200.8507310852956
  9
$EXTMAX
 10
1071.266380650549
 20
2439.416073239556
 30
0.5420844342645659
  9
$LIMMIN
 10
0.0
 20
0.0
  9
$LIMMAX
 10
12.0
 20
9.0
  9
$ORTHOMODE
 70
     1
  9
$REGENMODE
 70
     1
  9
$FILLMODE
 70
     1
  9
$QTEXTMODE
 70
     0
  9
$MIRRTEXT
 70
     0
  9
$LTSCALE
 40
1.0
  9
$ATTMODE
 70
     1
  9
$TEXTSIZE
 40
0.2
  9
$TRACEWID
 40
0.05
  9
$TEXTSTYLE
  7
Standard
  9
$CLAYER
  8
0
  9
$CELTYPE
  6
ByLayer
  9
$CECOLOR
 62
   256
  9
$CELTSCALE
 40
1.0
  9
$DISPSILH
 70
     0
  9
$DIMSCALE
 40
1.0
  9
$DIMASZ
 40
0.18
  9
$DIMEXO
 40
0.0625
  9
$DIMDLI
 40
0.38
  9
$DIMRND
 40
0.0
  9
$DIMDLE
 40
0.0
  9
$DIMEXE
 40
0.18
  9
$DIMTP
 40
0.0
  9
$DIMTM
 40
0.0
  9
$DIMTXT
 40
0.18
  9
$DIMCEN
 40
0.09
  9
$DIMTSZ
 40
0.0
  9
$DIMTOL
 70
     0
  9
$DIMLIM
 70
     0
  9
$DIMTIH
 70
     1
  9
$DIMTOH
 70
     1
  9
$DIMSE1
 70
     0
  9
$DIMSE2
 70
     0
  9
$DIMTAD
 70
     0
  9
$DIMZIN
 70
     0
  9
$DIMBLK
  1

  9
$DIMASO
 70
     1
  9
$DIMSHO
 70
     1
  9
$DIMPOST
  1

  9
$DIMAPOST
  1

  9
$DIMALT
 70
     0
  9
$DIMALTD
 70
     2
  9
$DIMALTF
 40
25.4
  9
$DIMLFAC
 40
1.0
  9
$DIMTOFL
 70
     0
  9
$DIMTVP
 40
0.0
  9
$DIMTIX
 70
     0
  9
$DIMSOXD
 70
     0
  9
$DIMSAH
 70
     0
  9
$DIMBLK1
  1

  9
$DIMBLK2
  1

  9
$DIMSTYLE
  2
Standard
  9
$DIMCLRD
 70
     0
  9
$DIMCLRE
 70
     0
  9
$DIMCLRT
 70
     0
  9
$DIMTFAC
 40
1.0
  9
$DIMGAP
 40
0.09
  9
$DIMJUST
 70
     0
  9
$DIMSD1
 70
     0
  9
$DIMSD2
 70
     0
  9
$DIMTOLJ
 70
     1
  9
$DIMTZIN
 70
     0
  9
$DIMALTZ
 70
     0
  9
$DIMALTTZ
 70
     0
  9
$DIMUPT
 70
     0
  9
$DIMDEC
 70
     4
  9
$DIMTDEC
 70
     4
  9
$DIMALTU
 70
     2
  9
$DIMALTTD
 70
     2
  9
$DIMTXSTY
  7
Standard
  9
$DIMAUNIT
 70
     0
  9
$DIMADEC
 70
     0
  9
$DIMALTRND
 40
0.0
  9
$DIMAZIN
 70
     0
  9
$DIMDSEP
 70
    46
  9
$DIMATFIT
 70
     3
  9
$DIMFRAC
 70
     0
  9
$DIMLDRBLK
  1

  9
$DIMLUNIT
 70
     2
  9
$DIMLWD
 70
    -2
  9
$DIMLWE
 70
    -2
  9
$DIMTMOVE
 70
     0
  9
$DIMFXL
 40
1.0
  9
$DIMFXLON
 70
     0
  9
$DIMJOGANG
 40
0.7853981633974483
  9
$DIMTFILL
 70
     0
  9
$DIMTFILLCLR
 70
     0
  9
$DIMARCSYM
 70
     0
  9
$DIMLTYPE
  6

  9
$DIMLTEX1
  6

  9
$DIMLTEX2
  6

  9
$DIMTXTDIRECTION
 70
     0
  9
$LUNITS
 70
     2
  9
$LUPREC
 70
     4
  9
$SKETCHINC
 40
0.1
  9
$FILLETRAD
 40
0.0
  9
$AUNITS
 70
     0
  9
$AUPREC
 70
     0
  9
$MENU
  1
.
  9
$ELEVATION
 40
0.0
  9
$PELEVATION
 40
0.0
  9
$THICKNESS
 40
0.0
  9
$LIMCHECK
 70
     0
  9
$CHAMFERA
 40
0.0
  9
$CHAMFERB
 40
0.0
  9
$CHAMFERC
 40
0.0
  9
$CHAMFERD
 40
0.0
  9
$SKPOLY
 70
     0
  9
$TDCREATE
 40
2458471.489155093
  9
$TDUCREATE
 40
2458471.780821759
  9
$TDUPDATE
 40
2458512.347465278
  9
$TDUUPDATE
 40
2458512.639131945
  9
$TDINDWG
 40
0.3257870370
  9
$TDUSRTIMER
 40
0.3257870370
  9
$USRTIMER
 70
     1
  9
$ANGBASE
 50
0.0
  9
$ANGDIR
 70
     0
  9
$PDMODE
 70
     0
  9
$PDSIZE
 40
0.0
  9
$PLINEWID
 40
0.0
  9
$SPLFRAME
 70
     0
  9
$SPLINETYPE
 70
     6
  9
$SPLINESEGS
 70
     8
  9
$HANDSEED
  5
DD3
  9
$SURFTAB1
 70
     6
  9
$SURFTAB2
 70
     6
  9
$SURFTYPE
 70
     6
  9
$SURFU
 70
     6
  9
$SURFV
 70
     6
  9
$UCSBASE
  2

  9
$UCSNAME
  2

  9
$UCSORG
 10
0.0
 20
0.0
 30
0.0
  9
$UCSXDIR
 10
1.0
 20
0.0
 30
0.0
  9
$UCSYDIR
 10
0.0
 20
1.0
 30
0.0
  9
$UCSORTHOREF
  2

  9
$UCSORTHOVIEW
 70
     0
  9
$UCSORGTOP
 10
0.0
 20
0.0
 30
0.0
  9
$UCSORGBOTTOM
 10
0.0
 20
0.0
 30
0.0
  9
$UCSORGLEFT
 10
0.0
 20
0.0
 30
0.0
  9
$UCSORGRIGHT
 10
0.0
 20
0.0
 30
0.0
  9
$UCSORGFRONT
 10
0.0
 20
0.0
 30
0.0
  9
$UCSORGBACK
 10
0.0
 20
0.0
 30
0.0
  9
$PUCSBASE
  2

  9
$PUCSNAME
  2

  9
$PUCSORG
 10
0.0
 20
0.0
 30
0.0
  9
$PUCSXDIR
 10
1.0
 20
0.0
 30
0.0
  9
$PUCSYDIR
 10
0.0
 20
1.0
 30
0.0
  9
$PUCSORTHOREF
  2

  9
$PUCSORTHOVIEW
 70
     0
  9
$PUCSORGTOP
 10
0.0
 20
0.0
 30
0.0
  9
$PUCSORGBOTTOM
 10
0.0
 20
0.0
 30
0.0
  9
$PUCSORGLEFT
 10
0.0
 20
0.0
 30
0.0
  9
$PUCSORGRIGHT
 10
0.0
 20
0.0
 30
0.0
  9
$PUCSORGFRONT
 10
0.0
 20
0.0
 30
0.0
  9
$PUCSORGBACK
 10
0.0
 20
0.0
 30
0.0
  9
$USERI1
 70
     0
  9
$USERI2
 70
     0
  9
$USERI3
 70
     0
  9
$USERI4
 70
     0
  9
$USERI5
 70
     0
  9
$USERR1
 40
0.0
  9
$USERR2
 40
0.0
  9
$USERR3
 40
0.0
  9
$USERR4
 40
0.0
  9
$USERR5
 40
0.0
  9
$WORLDVIEW
 70
     1
  9
$SHADEDGE
 70
     3
  9
$SHADEDIF
 70
    70
  9
$TILEMODE
 70
     1
  9
$MAXACTVP
 70
    64
  9
$PINSBASE
 10
0.0
 20
0.0
 30
0.0
  9
$PLIMCHECK
 70
     0
  9
$PEXTMIN
 10
0.0
 20
0.0
 30
0.0
  9
$PEXTMAX
 10
0.0
 20
0.0
 30
0.0
  9
$PLIMMIN
 10
0.0
 20
0.0
  9
$PLIMMAX
 10
12.0
 20
9.0
  9
$UNITMODE
 70
     0
  9
$VISRETAIN
 70
     1
  9
$PLINEGEN
 70
     0
  9
$PSLTSCALE
 70
     1
  9
$TREEDEPTH
 70
  3020
  9
$CMLSTYLE
  2
Standard
  9
$CMLJUST
 70
     0
  9
$CMLSCALE
 40
1.0
  9
$PROXYGRAPHICS
 70
     1
  9
$MEASUREMENT
 70
     0
  9
$CELWEIGHT
370
    -1
  9
$ENDCAPS
280
     0
  9
$JOINSTYLE
280
     0
  9
$LWDISPLAY
290
     0
  9
$INSUNITS
 70
     1
  9
$HYPERLINKBASE
  1

  9
$STYLESHEET
  1

  9
$XEDIT
290
     1
  9
$CEPSNTYPE
380
     0
  9
$PSTYLEMODE
290
     1
  9
$FINGERPRINTGUID
  2
{BE10BF91-E6F5-7F4A-85FB-65D4C4691911}
  9
$VERSIONGUID
  2
{4A7FAFCD-D465-7042-83E3-2C6FCD564E29}
  9
$EXTNAMES
290
     1
  9
$PSVPSCALE
 40
0.0
  9
$OLESTARTUP
290
     0
  9
$SORTENTS
280
   127
  9
$INDEXCTL
280
     0
  9
$HIDETEXT
280
     1
  9
$XCLIPFRAME
280
     2
  9
$HALOGAP
280
     0
  9
$OBSCOLOR
 70
   257
  9
$OBSLTYPE
280
     0
  9
$INTERSECTIONDISPLAY
280
     0
  9
$INTERSECTIONCOLOR
 70
   257
  9
$DIMASSOC
280
     2
  9
$PROJECTNAME
  1

  9
$CAMERADISPLAY
290
     0
  9
$LENSLENGTH
 40
50.0
  9
$CAMERAHEIGHT
 40
0.0
  9
$STEPSPERSEC
 40
2.0
  9
$STEPSIZE
 40
6.0
  9
$3DDWFPREC
 40
2.0
  9
$PSOLWIDTH
 40
0.25
  9
$PSOLHEIGHT
 40
4.0
  9
$LOFTANG1
 40
1.570796326794896
  9
$LOFTANG2
 40
1.570796326794896
  9
$LOFTMAG1
 40
0.0
  9
$LOFTMAG2
 40
0.0
  9
$LOFTPARAM
 70
     7
  9
$LOFTNORMALS
280
     1
  9
$LATITUDE
 40
37.795
  9
$LONGITUDE
 40
-122.394
  9
$NORTHDIRECTION
 40
0.0
  9
$TIMEZONE
 70
 -8000
  9
$LIGHTGLYPHDISPLAY
280
     1
  9
$TILEMODELIGHTSYNCH
280
     1
  9
$CMATERIAL
347
96
  9
$SOLIDHIST
280
     0
  9
$SHOWHIST
280
     1
  9
$DWFFRAME
280
     2
  9
$DGNFRAME
280
     0
  9
$REALWORLDSCALE
290
     1
  9
$INTERFERECOLOR
 62
     1
  9
$INTERFEREOBJVS
345
A3
  9
$INTERFEREVPVS
346
A0
  9
$CSHADOW
280
     0
  9
$SHADOWPLANELOCATION
 40
0.0
  0
ENDSEC
  0
SECTION
  2
CLASSES
  0
CLASS
  1
ACDBDICTIONARYWDFLT
  2
AcDbDictionaryWithDefault
  3
ObjectDBX Classes
 90
        0
 91
        1
280
     0
281
     0
  0
CLASS
  1
DICTIONARYVAR
  2
AcDbDictionaryVar
  3
ObjectDBX Classes
 90
        0
 91
        9
280
     0
281
     0
  0
CLASS
  1
TABLESTYLE
  2
AcDbTableStyle
  3
ObjectDBX Classes
 90
     4095
 91
        1
280
     0
281
     0
  0
CLASS
  1
MATERIAL
  2
AcDbMaterial
  3
ObjectDBX Classes
 90
     1153
 91
        3
280
     0
281
     0
  0
CLASS
  1
VISUALSTYLE
  2
AcDbVisualStyle
  3
ObjectDBX Classes
 90
     4095
 91
       25
280
     0
281
     0
  0
CLASS
  1
SCALE
  2
AcDbScale
  3
ObjectDBX Classes
 90
     1153
 91
       33
280
     0
281
     0
  0
CLASS
  1
MLEADERSTYLE
  2
AcDbMLeaderStyle
  3
ACDB_MLEADERSTYLE_CLASS
 90
     4095
 91
        2
280
     0
281
     0
  0
CLASS
  1
CELLSTYLEMAP
  2
AcDbCellStyleMap
  3
ObjectDBX Classes
 90
     1152
 91
        1
280
     0
281
     0
  0
CLASS
  1
EXACXREFPANELOBJECT
  2
ExAcXREFPanelObject
  3
EXAC_ESW
 90
     1025
 91
        0
280
     0
281
     0
  0
CLASS
  1
NPOCOLLECTION
  2
AcDbImpNonPersistentObjectsCollection
  3
ObjectDBX Classes
 90
     1153
 91
        0
280
     0
281
     0
  0
CLASS
  1
LAYER_INDEX
  2
AcDbLayerIndex
  3
ObjectDBX Classes
 90
        0
 91
        0
280
     0
281
     0
  0
CLASS
  1
SPATIAL_INDEX
  2
AcDbSpatialIndex
  3
ObjectDBX Classes
 90
        0
 91
        0
280
     0
281
     0
  0
CLASS
  1
IDBUFFER
  2
AcDbIdBuffer
  3
ObjectDBX Classes
 90
        0
 91
        0
280
     0
281
     0
  0
CLASS
  1
ACDBSECTIONVIEWSTYLE
  2
AcDbSectionViewStyle
  3
ObjectDBX Classes
 90
     1025
 91
        1
280
     0
281
     0
  0
CLASS
  1
ACDBDETAILVIEWSTYLE
  2
AcDbDetailViewStyle
  3
ObjectDBX Classes
 90
     1025
 91
        1
280
     0
281
     0
  0
CLASS
  1
SORTENTSTABLE
  2
AcDbSortentsTable
  3
ObjectDBX Classes
 90
        0
 91
        1
280
     0
281
     0
  0
CLASS
  1
MULTILEADER
  2
AcDbMLeader
  3
ACDB_MLEADER_CLASS
 90
     1025
 91
       26
280
     0
281
     1
  0
CLASS
  1
DIMASSOC
  2
AcDbDimAssoc
  3
"AcDbDimAssoc|Product Desc:     AcDim ARX App For Dimension|Company:          Autodesk, Inc.|WEB Address:      www.autodesk.com"
 90
        0
 91
        1
280
     0
281
     0
  0
ENDSEC
  0
SECTION
  2
TABLES
  0
TABLE
  2
VPORT
  5
8
330
0
100
AcDbSymbolTable
 70
     1
1001
ACAD
1000
DbSaveVer
1071
       51
  0
VPORT
  5
94
330
8
100
AcDbSymbolTableRecord
100
AcDbViewportTableRecord
  2
*Active
 70
     0
 10
0.0
 20
0.0
 11
1.0
 21
1.0
 12
-59.09079294090111
 22
1218.692673766465
 13
0.0
 23
0.0
 14
0.5
 24
0.5
 15
0.5
 25
0.5
 16
0.0
 26
0.0
 36
1.0
 17
0.0
 27
0.0
 37
0.0
 40
1412.260538926023
 41
2.351715686274509
 42
50.0
 43
0.0
 44
0.0
 50
0.0
 51
0.0
 71
     0
 72
  1000
 73
     1
 74
     3
 75
     0
 76
     0
 77
     0
 78
     0
281
     0
 65
     1
110
0.0
120
0.0
130
0.0
111
1.0
121
0.0
131
0.0
112
0.0
122
1.0
132
0.0
 79
     0
146
0.0
348
9F
 60
     3
 61
     5
292
     1
282
     1
141
0.0
142
0.0
 63
   250
421
  3355443
1001
ACAD_NAV_VCDISPLAY
1070
     3
  0
ENDTAB
  0
TABLE
  2
LTYPE
  5
5
330
0
100
AcDbSymbolTable
 70
     2
  0
LTYPE
  5
14
330
5
100
AcDbSymbolTableRecord
100
AcDbLinetypeTableRecord
  2
ByBlock
 70
     0
  3

 72
    65
 73
     0
 40
0.0
  0
LTYPE
  5
15
330
5
100
AcDbSymbolTableRecord
100
AcDbLinetypeTableRecord
  2
ByLayer
 70
     0
  3

 72
    65
 73
     0
 40
0.0
  0
LTYPE
  5
16
330
5
100
AcDbSymbolTableRecord
100
AcDbLinetypeTableRecord
  2
Continuous
 70
     0
  3
Solid line
 72
    65
 73
     0
 40
0.0
  0
LTYPE
  5
221
330
5
100
AcDbSymbolTableRecord
100
AcDbLinetypeTableRecord
  2
CENTER2
 70
     0
  3
Center (.5x) ___ _ ___ _ ___ _ ___ _ ___ _ ___
 72
    65
 73
     4
 40
1.125
 49
0.75
 74
     0
 49
-0.125
 74
     0
 49
0.125
 74
     0
 49
-0.125
 74
     0
  0
ENDTAB
  0
TABLE
  2
LAYER
  5
2
102
{ACAD_XDICTIONARY
360
18E
102
}
330
0
100
AcDbSymbolTable
 70
     7
  0
LAYER
  5
10
102
{ACAD_XDICTIONARY
360
E6
102
}
330
2
100
AcDbSymbolTableRecord
100
AcDbLayerTableRecord
  2
0
 70
     0
 62
     7
  6
Continuous
370
    -3
390
F
347
98
348
0
  0
LAYER
  5
222
330
2
100
AcDbSymbolTableRecord
100
AcDbLayerTableRecord
  2
DEFPOINTS
 70
     0
 62
     7
  6
Continuous
290
     0
370
    -3
390
F
347
98
348
0
  0
LAYER
  5
955
330
2
100
AcDbSymbolTableRecord
100
AcDbLayerTableRecord
  2
Specimen Conv. Phase 2
 70
     0
 62
   160
  6
Continuous
370
    -3
390
F
347
98
348
0
1001
AcAecLayerStandard
1000

1000

1001
AcCmTransparency
1071
        0
  0
LAYER
  5
A17
102
{ACAD_XDICTIONARY
360
A18
102
}
330
2
100
AcDbSymbolTableRecord
100
AcDbLayerTableRecord
  2
Conv Green 1.5
 70
     0
 62
   116
420
  1271604
  6
Continuous
370
    -3
390
F
347
98
348
0
1001
AcAecLayerStandard
1000

1000

1001
AcCmTransparency
1071
        0
  0
LAYER
  5
A1A
102
{ACAD_XDICTIONARY
360
A1B
102
}
330
2
100
AcDbSymbolTableRecord
100
AcDbLayerTableRecord
  2
Dims Green 1.5
 70
     0
 62
   116
420
  1271604
  6
Continuous
370
    -3
390
F
347
98
348
0
1001
AcAecLayerStandard
1000

1000

1001
AcCmTransparency
1071
        0
  0
LAYER
  5
A1D
102
{ACAD_XDICTIONARY
360
A1E
102
}
330
2
100
AcDbSymbolTableRecord
100
AcDbLayerTableRecord
  2
Conv Magenta 1.5
 70
     0
 62
   219
420
  6562149
  6
Continuous
370
    -3
390
F
347
98
348
0
1001
AcAecLayerStandard
1000

1000

1001
AcCmTransparency
1071
        0
  0
LAYER
  5
A20
102
{ACAD_XDICTIONARY
360
A21
102
}
330
2
100
AcDbSymbolTableRecord
100
AcDbLayerTableRecord
  2
Dims Magenta 1.5
 70
     0
 62
   219
420
  6562149
  6
Continuous
370
    -3
390
F
347
98
348
0
1001
AcAecLayerStandard
1000

1000

1001
AcCmTransparency
1071
        0
  0
ENDTAB
  0
TABLE
  2
STYLE
  5
3
330
0
100
AcDbSymbolTable
 70
     1
  0
STYLE
  5
11
330
3
100
AcDbSymbolTableRecord
100
AcDbTextStyleTableRecord
  2
Standard
 70
     0
 40
0.0
 41
1.0
 50
0.0
 71
     0
 42
0.2
  3
arial.ttf
  4

1001
ACAD
1000
Arial
1071
       34
  0
ENDTAB
  0
TABLE
  2
VIEW
  5
6
330
0
100
AcDbSymbolTable
 70
     0
  0
ENDTAB
  0
TABLE
  2
UCS
  5
7
330
0
100
AcDbSymbolTable
 70
     0
  0
ENDTAB
  0
TABLE
  2
APPID
  5
9
330
0
100
AcDbSymbolTable
 70
    13
  0
APPID
  5
12
330
9
100
AcDbSymbolTableRecord
100
AcDbRegAppTableRecord
  2
ACAD
 70
     0
  0
APPID
  5
DD
330
9
100
AcDbSymbolTableRecord
100
AcDbRegAppTableRecord
  2
AcadAnnoPO
 70
     0
  0
APPID
  5
DE
330
9
100
AcDbSymbolTableRecord
100
AcDbRegAppTableRecord
  2
AcadAnnotative
 70
     0
  0
APPID
  5
DF
330
9
100
AcDbSymbolTableRecord
100
AcDbRegAppTableRecord
  2
ACAD_DSTYLE_DIMJAG
 70
     0
  0
APPID
  5
E0
330
9
100
AcDbSymbolTableRecord
100
AcDbRegAppTableRecord
  2
ACAD_DSTYLE_DIMTALN
 70
     0
  0
APPID
  5
107
330
9
100
AcDbSymbolTableRecord
100
AcDbRegAppTableRecord
  2
ACAD_MLEADERVER
 70
     0
  0
APPID
  5
1A6
330
9
100
AcDbSymbolTableRecord
100
AcDbRegAppTableRecord
  2
ACAD_NAV_VCDISPLAY
 70
     0
  0
APPID
  5
226
330
9
100
AcDbSymbolTableRecord
100
AcDbRegAppTableRecord
  2
AcAecLayerStandard
 70
     0
  0
APPID
  5
227
330
9
100
AcDbSymbolTableRecord
100
AcDbRegAppTableRecord
  2
ACAD_PSEXT
 70
     0
  0
APPID
  5
228
330
9
100
AcDbSymbolTableRecord
100
AcDbRegAppTableRecord
  2
AcLayerTools
 70
     0
  0
APPID
  5
229
330
9
100
AcDbSymbolTableRecord
100
AcDbRegAppTableRecord
  2
AcCmTransparency
 70
     0
  0
APPID
  5
A25
330
9
100
AcDbSymbolTableRecord
100
AcDbRegAppTableRecord
  2
ACAD_DSTYLE_DIMBREAK
 70
     0
  0
APPID
  5
A26
330
9
100
AcDbSymbolTableRecord
100
AcDbRegAppTableRecord
  2
AcadAnnoAV
 70
     0
  0
ENDTAB
  0
TABLE
  2
DIMSTYLE
  5
A
330
0
100
AcDbSymbolTable
 70
     3
100
AcDbDimStyleTable
 71
     1
340
27
  0
DIMSTYLE
105
27
330
A
100
AcDbSymbolTableRecord
100
AcDbDimStyleTableRecord
  2
Standard
 70
     0
340
11
  0
DIMSTYLE
105
D45
330
A
100
AcDbSymbolTableRecord
100
AcDbDimStyleTableRecord
  2
Hoj 08
 70
     0
 40
64.0
 44
0.125
 46
0.125
 77
     2
140
0.125
177
   256
178
   256
277
     4
279
     2
340
11
1001
ACAD_DSTYLE_DIMBREAK
1070
   391
1040
0.125
1001
ACAD_DSTYLE_DIMJAG
1070
   388
1040
1.5
1001
ACAD_DSTYLE_DIMTALN
1070
   392
1070
     0
  0
DIMSTYLE
105
D46
330
A
100
AcDbSymbolTableRecord
100
AcDbDimStyleTableRecord
  2
Hoj 01.5
 70
     0
 40
12.0
 44
0.125
 46
0.125
 77
     2
140
0.125
177
   256
178
   256
277
     4
279
     2
340
11
1001
ACAD_DSTYLE_DIMBREAK
1070
   391
1040
0.125
1001
ACAD_DSTYLE_DIMJAG
1070
   388
1040
1.5
1001
ACAD_DSTYLE_DIMTALN
1070
   392
1070
     0
  0
ENDTAB
  0
TABLE
  2
BLOCK_RECORD
  5
1
330
0
100
AcDbSymbolTable
 70
     2
  0
BLOCK_RECORD
  5
1F
102
{ACAD_XDICTIONARY
360
15D
102
}
330
1
100
AcDbSymbolTableRecord
100
AcDbBlockTableRecord
  2
*Model_Space
340
22
 70
     0
280
     1
281
     0
  0
BLOCK_RECORD
  5
58
330
1
100
AcDbSymbolTableRecord
100
AcDbBlockTableRecord
  2
*Paper_Space
340
59
 70
     0
280
     1
281
     0
  0
BLOCK_RECORD
  5
5D
330
1
100
AcDbSymbolTableRecord
100
AcDbBlockTableRecord
  2
*Paper_Space0
340
5E
 70
     0
280
     1
281
     0
  0
ENDTAB
  0
ENDSEC
  0
SECTION
  2
BLOCKS
  0
BLOCK
  5
20
330
1F
100
AcDbEntity
  8
0
100
AcDbBlockBegin
  2
*Model_Space
 70
     0
 10
0.0
 20
0.0
 30
0.0
  3
*Model_Space
  1

  0
ENDBLK
  5
21
330
1F
100
AcDbEntity
  8
0
100
AcDbBlockEnd
  0
BLOCK
  5
5A
330
58
100
AcDbEntity
 67
     1
  8
0
100
AcDbBlockBegin
  2
*Paper_Space
 70
     0
 10
0.0
 20
0.0
 30
0.0
  3
*Paper_Space
  1

  0
ENDBLK
  5
5B
330
58
100
AcDbEntity
 67
     1
  8
0
100
AcDbBlockEnd
  0
BLOCK
  5
5F
330
5D
100
AcDbEntity
 67
     1
  8
0
100
AcDbBlockBegin
  2
*Paper_Space0
 70
     0
 10
0.0
 20
0.0
 30
0.0
  3
*Paper_Space0
  1

  0
ENDBLK
  5
60
330
5D
100
AcDbEntity
 67
     1
  8
0
100
AcDbBlockEnd
  0
ENDSEC
  0
SECTION
  2
ENTITIES
  0
LINE
  5
55C
330
1F
100
AcDbEntity
  8
0
100
AcDbLine
 10
1056.266380650549
 20
1415.693413479184
 30
0.0
 11
1056.266380650549
 21
1416.068413479184
 31
0.0
  0
ARC
  5
55D
330
1F
100
AcDbEntity
  8
0
100
AcDbCircle
 10
1056.516380650549
 20
1416.068413479184
 30
0.0
 40
0.25
100
AcDbArc
 50
90.0
 51
180.0
  0
LINE
  5
55E
330
1F
100
AcDbEntity
  8
0
100
AcDbLine
 10
1056.516380650549
 20
1416.318413479184
 30
0.0
 11
1063.391380650549
 21
1416.318413479184
 31
0.0
  0
ARC
  5
55F
330
1F
100
AcDbEntity
  8
0
100
AcDbCircle
 10
1063.391380650549
 20
1416.568413479184
 30
0.0
 40
0.25
100
AcDbArc
 50
270.0
 51
0.0
  0
LINE
  5
560
330
1F
100
AcDbEntity
  8
0
100
AcDbLine
 10
1063.641380650549
 20
1416.568413479184
 30
0.0
 11
1063.641380650549
 21
1429.818413479184
 31
0.0
  0
ARC
  5
561
330
1F
100
AcDbEntity
  8
0
100
AcDbCircle
 10
1063.391380650549
 20
1429.818413479184
 30
0.0
 40
0.25
100
AcDbArc
 50
0.0
 51
90.0
  0
LINE
  5
562
330
1F
100
AcDbEntity
  8
0
100
AcDbLine
 10
1063.391380650549
 20
1430.068413479184
 30
0.0
 11
1056.516380650549
 21
1430.068413479184
 31
0.0
  0
ARC
  5
563
330
1F
100
AcDbEntity
  8
0
100
AcDbCircle
 10
1056.516380650549
 20
1430.318413479184
 30
0.0
 40
0.25
100
AcDbArc
 50
180.0
 51
270.0
  0
LINE
  5
564
330
1F
100
AcDbEntity
  8
0
100
AcDbLine
 10
1056.266380650549
 20
1430.318413479184
 30
0.0
 11
1056.266380650549
 21
1430.693413479184
 31
0.0
  0
LINE
  5
565
330
1F
100
AcDbEntity
  8
0
100
AcDbLine
 10
1056.266380650549
 20
1430.693413479184
 30
0.0
 11
1071.266380650549
 21
1430.693413479184
 31
0.0
  0
LINE
  5
566
330
1F
100
AcDbEntity
  8
0
100
AcDbLine
 10
1071.266380650549
 20
1430.693413479184
 30
0.0
 11
1071.266380650549
 21
1430.318413479184
 31
0.0
  0
ARC
  5
567
330
1F
100
AcDbEntity
  8
0
100
AcDbCircle
 10
1071.016380650549
 20
1430.318413479184
 30
0.0
 40
0.25
100
AcDbArc
 50
270.0
 51
0.0
  0
LINE
  5
568
330
1F
100
AcDbEntity
  8
0
100
AcDbLine
 10
1071.016380650549
 20
1430.068413479184
 30
0.0
 11
1064.141380650549
 21
1430.068413479184
 31
0.0
  0
ARC
  5
569
330
1F
100
AcDbEntity
  8
0
100
AcDbCircle
 10
1064.141380650549
 20
1429.818413479184
 30
0.0
 40
0.25
100
AcDbArc
 50
90.0
 51
180.0
  0
LINE
  5
56A
330
1F
100
AcDbEntity
  8
0
100
AcDbLine
 10
1063.891380650549
 20
1429.818413479184
 30
0.0
 11
1063.891380650549
 21
1416.568413479184
 31
0.0
  0
ARC
  5
56B
330
1F
100
AcDbEntity
  8
0
100
AcDbCircle
 10
1064.141380650549
 20
1416.568413479184
 30
0.0
 40
0.25
100
AcDbArc
 50
180.0
 51
270.0
  0
LINE
  5
56C
330
1F
100
AcDbEntity
  8
0
100
AcDbLine
 10
1064.141380650549
 20
1416.318413479184
 30
0.0
 11
1071.016380650549
 21
1416.318413479184
 31
0.0
  0
ARC
  5
56D
330
1F
100
AcDbEntity
  8
0
100
AcDbCircle
 10
1071.016380650549
 20
1416.068413479184
 30
0.0
 40
0.25
100
AcDbArc
 50
0.0
 51
90.0
  0
LINE
  5
56E
330
1F
100
AcDbEntity
  8
0
100
AcDbLine
 10
1071.266380650549
 20
1416.068413479184
 30
0.0
 11
1071.266380650549
 21
1415.693413479184
 31
0.0
  0
LINE
  5
56F
330
1F
100
AcDbEntity
  8
0
100
AcDbLine
 10
1071.266380650549
 20
1415.693413479184
 30
0.0
 11
1056.266380650549
 21
1415.693413479184
 31
0.0
  0
LINE
  5
570
330
1F
100
AcDbEntity
  8
0
100
AcDbLine
 10
1056.266380650549
 20
1430.693413479184
 30
0.0
 11
1071.266380650549
 21
1415.693413479184
 31
0.0
  0
LINE
  5
571
330
1F
100
AcDbEntity
  8
0
100
AcDbLine
 10
1056.266380650549
 20
1415.693413479184
 30
0.0
 11
1071.266380650549
 21
1430.693413479184
 31
0.0
  0
LINE
  5
572
330
1F
100
AcDbEntity
  8
0
100
AcDbLine
 10
696.2663806505489
 20
1415.693413479184
 30
0.0
 11
696.2663806505489
 21
1416.068413479184
 31
0.0
  0
ARC
  5
573
330
1F
100
AcDbEntity
  8
0
100
AcDbCircle
 10
696.5163806505489
 20
1416.068413479184
 30
0.0
 40
0.25
100
AcDbArc
 50
90.0
 51
180.0
  0
LINE
  5
574
330
1F
100
AcDbEntity
  8
0
100
AcDbLine
 10
696.5163806505489
 20
1416.318413479184
 30
0.0
 11
703.391380650549
 21
1416.318413479184
 31
0.0
  0
ARC
  5
575
330
1F
100
AcDbEntity
  8
0
100
AcDbCircle
 10
703.391380650549
 20
1416.568413479184
 30
0.0
 40
0.25
100
AcDbArc
 50
270.0
 51
0.0
  0
LINE
  5
576
330
1F
100
AcDbEntity
  8
0
100
AcDbLine
 10
703.6413806505489
 20
1416.568413479184
 30
0.0
 11
703.6413806505489
 21
1429.818413479184
 31
0.0
  0
ARC
  5
577
330
1F
100
AcDbEntity
  8
0
100
AcDbCircle
 10
703.391380650549
 20
1429.818413479184
 30
0.0
 40
0.25
100
AcDbArc
 50
0.0
 51
90.0
  0
LINE
  5
578
330
1F
100
AcDbEntity
  8
0
100
AcDbLine
 10
703.391380650549
 20
1430.068413479184
 30
0.0
 11
696.5163806505489
 21
1430.068413479184
 31
0.0
  0
ARC
  5
579
330
1F
100
AcDbEntity
  8
0
100
AcDbCircle
 10
696.5163806505489
 20
1430.318413479184
 30
0.0
 40
0.25
100
AcDbArc
 50
180.0
 51
270.0
  0
LINE
  5
57A
330
1F
100
AcDbEntity
  8
0
100
AcDbLine
 10
696.2663806505489
 20
1430.318413479184
 30
0.0
 11
696.2663806505489
 21
1430.693413479184
 31
0.0
  0
LINE
  5
57B
330
1F
100
AcDbEntity
  8
0
100
AcDbLine
 10
696.2663806505489
 20
1430.693413479184
 30
0.0
 11
711.2663806505489
 21
1430.693413479184
 31
0.0
  0
LINE
  5
57C
330
1F
100
AcDbEntity
  8
0
100
AcDbLine
 10
711.2663806505489
 20
1430.693413479184
 30
0.0
 11
711.2663806505489
 21
1430.318413479184
 31
0.0
  0
ARC
  5
57D
330
1F
100
AcDbEntity
  8
0
100
AcDbCircle
 10
711.0163806505489
 20
1430.318413479184
 30
0.0
 40
0.25
100
AcDbArc
 50
270.0
 51
0.0
  0
LINE
  5
57E
330
1F
100
AcDbEntity
  8
0
100
AcDbLine
 10
711.0163806505489
 20
1430.068413479184
 30
0.0
 11
704.1413806505489
 21
1430.068413479184
 31
0.0
  0
ARC
  5
57F
330
1F
100
AcDbEntity
  8
0
100
AcDbCircle
 10
704.1413806505489
 20
1429.818413479184
 30
0.0
 40
0.25
100
AcDbArc
 50
90.0
 51
180.0
  0
LINE
  5
580
330
1F
100
AcDbEntity
  8
0
100
AcDbLine
 10
703.8913806505489
 20
1429.818413479184
 30
0.0
 11
703.8913806505489
 21
1416.568413479184
 31
0.0
  0
ARC
  5
581
330
1F
100
AcDbEntity
  8
0
100
AcDbCircle
 10
704.1413806505489
 20
1416.568413479184
 30
0.0
 40
0.25
100
AcDbArc
 50
180.0
 51
270.0
  0
LINE
  5
582
330
1F
100
AcDbEntity
  8
0
100
AcDbLine
 10
704.1413806505489
 20
1416.318413479184
 30
0.0
 11
711.0163806505489
 21
1416.318413479184
 31
0.0
  0
ARC
  5
583
330
1F
100
AcDbEntity
  8
0
100
AcDbCircle
 10
711.0163806505489
 20
1416.068413479184
 30
0.0
 40
0.25
100
AcDbArc
 50
0.0
 51
90.0
  0
LINE
  5
584
330
1F
100
AcDbEntity
  8
0
100
AcDbLine
 10
711.2663806505489
 20
1416.068413479184
 30
0.0
 11
711.2663806505489
 21
1415.693413479184
 31
0.0
  0
LINE
  5
585
330
1F
100
AcDbEntity
  8
0
100
AcDbLine
 10
711.2663806505489
 20
1415.693413479184
 30
0.0
 11
696.2663806505489
 21
1415.693413479184
 31
0.0
  0
LINE
  5
586
330
1F
100
AcDbEntity
  8
0
100
AcDbLine
 10
696.2663806505489
 20
1430.693413479184
 30
0.0
 11
711.2663806505489
 21
1415.693413479184
 31
0.0
  0
LINE
  5
587
330
1F
100
AcDbEntity
  8
0
100
AcDbLine
 10
696.2663806505489
 20
1415.693413479184
 30
0.0
 11
711.2663806505489
 21
1430.693413479184
 31
0.0
  0
LINE
  5
877
330
1F
100
AcDbEntity
  8
Specimen Conv. Phase 2
100
AcDbLine
 10
885.8261556776971
 20
2398.651294098225
 30
-200.8507310852956
 11
885.8261556776971
 21
1652.288807626742
 31
-200.8507310852956
  0
ARC
  5
8D0
330
1F
100
AcDbEntity
  8
Specimen Conv. Phase 2
  6
CENTER2
100
AcDbCircle
 10
905.9811342483854
 20
2157.216739713431
 30
0.0
 40
15.748031496063
100
AcDbArc
 50
270.0
 51
269.956404198575
  0
ARC
  5
8D1
330
1F
100
AcDbEntity
  8
Specimen Conv. Phase 2
100
AcDbCircle
 10
905.9811342483854
 20
2157.216739713431
 30
0.0
 40
12.99212598425197
100
AcDbArc
 50
270.0
 51
269.956404198575
  0
ARC
  5
8D2
330
1F
100
AcDbEntity
  8
Specimen Conv. Phase 2
100
AcDbCircle
 10
905.9811342483854
 20
2157.216739713431
 30
0.0
 40
18.50393700787402
100
AcDbArc
 50
270.0
 51
269.956404198575
  0
ARC
  5
8D3
330
1F
100
AcDbEntity
  8
Specimen Conv. Phase 2
100
AcDbCircle
 10
905.9811342483854
 20
2157.216739713431
 30
0.0
 40
21.50393700787402
100
AcDbArc
 50
270.0
 51
269.956404198575
  0
ARC
  5
8D4
330
1F
100
AcDbEntity
  8
Specimen Conv. Phase 2
  6
CENTER2
100
AcDbCircle
 10
905.9811342483854
 20
2157.216739713431
 30
0.0
 40
24.25984251968254
100
AcDbArc
 50
270.0
 51
269.956404198575
  0
ARC
  5
8D5
330
1F
100
AcDbEntity
  8
Specimen Conv. Phase 2
100
AcDbCircle
 10
905.9811342483854
 20
2157.216739713431
 30
0.0
 40
27.01574803149105
100
AcDbArc
 50
270.0
 51
269.956404198575
  0
LINE
  5
8D6
330
1F
100
AcDbEntity
  8
Specimen Conv. Phase 2
100
AcDbLine
 10
905.9647721134252
 20
2130.200987123246
 30
0.0
 11
905.9647721134252
 21
2135.712808930452
 31
0.0
  0
LINE
  5
8D7
330
1F
100
AcDbEntity
  8
Specimen Conv. Phase 2
100
AcDbLine
 10
905.9647721134252
 20
2135.712808930452
 30
0.0
 11
928.8277624405356
 21
2135.712808930452
 31
0.0
  0
LINE
  5
8D8
330
1F
100
AcDbEntity
  8
Specimen Conv. Phase 2
100
AcDbLine
 10
928.8277624405356
 20
2143.712808930452
 30
0.0
 11
928.8277624405356
 21
2138.200987123246
 31
0.0
  0
LINE
  5
8D9
330
1F
100
AcDbEntity
  8
Specimen Conv. Phase 2
100
AcDbLine
 10
905.9647721134252
 20
2130.200994145909
 30
0.0
 11
905.9647721134252
 21
2135.712805169531
 31
0.0
  0
LINE
  5
8DA
330
1F
100
AcDbEntity
  8
Specimen Conv. Phase 2
100
AcDbLine
 10
905.9647721134252
 20
2135.712805169531
 30
0.0
 11
883.1400120254885
 21
2135.712805169531
 31
0.0
  0
LINE
  5
8DB
330
1F
100
AcDbEntity
  8
Specimen Conv. Phase 2
  6
CENTER2
100
AcDbLine
 10
928.8277624405356
 20
2132.956892635057
 30
0.0
 11
905.9626751719234
 21
2132.956904216413
 31
0.0
  0
LINE
  5
8DC
330
1F
100
AcDbEntity
  8
Specimen Conv. Phase 2
  6
CENTER2
100
AcDbLine
 10
905.9626751719234
 20
2132.956904216413
 30
0.0
 11
883.1400120254885
 21
2132.956904216413
 31
0.0
  0
LINE
  5
8DD
330
1F
100
AcDbEntity
  8
Specimen Conv. Phase 2
100
AcDbLine
 10
928.8157799176779
 20
2138.712791921973
 30
0.0
 11
905.9527895905677
 21
2138.712791921973
 31
0.0
  0
LINE
  5
8DE
330
1F
100
AcDbEntity
  8
Specimen Conv. Phase 2
100
AcDbLine
 10
905.9527895905677
 20
2138.712791921973
 30
0.0
 11
905.9527895905677
 21
2144.224613729178
 31
0.0
  0
LINE
  5
8DF
330
1F
100
AcDbEntity
  8
Specimen Conv. Phase 2
100
AcDbLine
 10
905.9527895905677
 20
2144.224613729178
 30
0.0
 11
928.8157799176779
 21
2144.224613729178
 31
0.0
  0
LINE
  5
8E0
330
1F
100
AcDbEntity
  8
Specimen Conv. Phase 2
100
AcDbLine
 10
928.8157799176779
 20
2152.224613729179
 30
0.0
 11
928.8157799176779
 21
2146.712791921973
 31
0.0
  0
LINE
  5
8E1
330
1F
100
AcDbEntity
  8
Specimen Conv. Phase 2
100
AcDbLine
 10
883.128029502631
 20
2138.712798944636
 30
0.0
 11
905.9527895905677
 21
2138.712798944636
 31
0.0
  0
LINE
  5
8E2
330
1F
100
AcDbEntity
  8
Specimen Conv. Phase 2
100
AcDbLine
 10
905.9527895905677
 20
2138.712798944636
 30
0.0
 11
905.9527895905677
 21
2144.224609968258
 31
0.0
  0
LINE
  5
8E3
330
1F
100
AcDbEntity
  8
Specimen Conv. Phase 2
100
AcDbLine
 10
905.9527895905677
 20
2144.224609968258
 30
0.0
 11
882.2945303046882
 21
2144.224609968258
 31
0.0
  0
LINE
  5
8E4
330
1F
100
AcDbEntity
  8
Specimen Conv. Phase 2
  6
CENTER2
100
AcDbLine
 10
928.8157799176779
 20
2141.468697433784
 30
0.0
 11
905.9506926490659
 21
2141.46870901514
 31
0.0
  0
LINE
  5
8E5
330
1F
100
AcDbEntity
  8
Specimen Conv. Phase 2
  6
CENTER2
100
AcDbLine
 10
905.9506926490659
 20
2141.46870901514
 30
0.0
 11
883.128029502631
 21
2141.46870901514
 31
0.0
  0
ARC
  5
8E6
330
1F
100
AcDbEntity
  8
Specimen Conv. Phase 2
  6
CENTER2
100
AcDbCircle
 10
905.9811342483854
 20
2157.216739713431
 30
0.0
 40
15.748031496063
100
AcDbArc
 50
270.0
 51
269.956404198575
  0
ARC
  5
8E7
330
1F
100
AcDbEntity
  8
Specimen Conv. Phase 2
100
AcDbCircle
 10
905.9811342483854
 20
2157.216739713431
 30
0.0
 40
12.99212598425197
100
AcDbArc
 50
270.0
 51
269.956404198575
  0
ARC
  5
8E8
330
1F
100
AcDbEntity
  8
Specimen Conv. Phase 2
100
AcDbCircle
 10
905.9811342483854
 20
2157.216739713431
 30
0.0
 40
18.50393700787402
100
AcDbArc
 50
270.0
 51
269.956404198575
  0
ARC
  5
8E9
330
1F
100
AcDbEntity
  8
Specimen Conv. Phase 2
100
AcDbCircle
 10
905.9811342483854
 20
2157.216739713431
 30
0.0
 40
21.50393700787402
100
AcDbArc
 50
270.0
 51
269.956404198575
  0
ARC
  5
8EA
330
1F
100
AcDbEntity
  8
Specimen Conv. Phase 2
  6
CENTER2
100
AcDbCircle
 10
905.9811342483854
 20
2157.216739713431
 30
0.0
 40
24.25984251968254
100
AcDbArc
 50
270.0
 51
269.956404198575
  0
ARC
  5
8EB
330
1F
100
AcDbEntity
  8
Specimen Conv. Phase 2
100
AcDbCircle
 10
905.9811342483854
 20
2157.216739713431
 30
0.0
 40
27.01574803149105
100
AcDbArc
 50
270.0
 51
269.956404198575
  0
LINE
  5
8EC
330
1F
100
AcDbEntity
  8
Specimen Conv. Phase 2
100
AcDbLine
 10
905.9647721134217
 20
2130.200987123246
 30
0.0
 11
905.9647721134217
 21
2135.712808930452
 31
0.0
  0
LINE
  5
8ED
330
1F
100
AcDbEntity
  8
Specimen Conv. Phase 2
100
AcDbLine
 10
905.9647721134217
 20
2135.712808930452
 30
0.0
 11
928.8277624405356
 21
2135.712808930452
 31
0.0
  0
LINE
  5
8EE
330
1F
100
AcDbEntity
  8
Specimen Conv. Phase 2
100
AcDbLine
 10
928.8277624405356
 20
2143.712808930452
 30
0.0
 11
928.8277624405356
 21
2138.200987123246
 31
0.0
  0
LINE
  5
8EF
330
1F
100
AcDbEntity
  8
Specimen Conv. Phase 2
100
AcDbLine
 10
905.9647721134217
 20
2130.200994145909
 30
0.0
 11
905.9647721134217
 21
2135.712805169531
 31
0.0
  0
LINE
  5
8F0
330
1F
100
AcDbEntity
  8
Specimen Conv. Phase 2
100
AcDbLine
 10
905.9647721134217
 20
2135.712805169531
 30
0.0
 11
883.1400120254885
 21
2135.712805169531
 31
0.0
  0
LINE
  5
8F1
330
1F
100
AcDbEntity
  8
Specimen Conv. Phase 2
  6
CENTER2
100
AcDbLine
 10
928.8277624405356
 20
2132.956892635057
 30
0.0
 11
905.9626751719234
 21
2132.956904216413
 31
0.0
  0
LINE
  5
8F2
330
1F
100
AcDbEntity
  8
Specimen Conv. Phase 2
  6
CENTER2
100
AcDbLine
 10
905.9626751719234
 20
2132.956904216413
 30
0.0
 11
883.1400120254885
 21
2132.956904216413
 31
0.0
  0
LINE
  5
8F3
330
1F
100
AcDbEntity
  8
Specimen Conv. Phase 2
100
AcDbLine
 10
928.8157799176779
 20
2138.712791921973
 30
0.0
 11
905.9527895905677
 21
2138.712791921973
 31
0.0
  0
LINE
  5
8F4
330
1F
100
AcDbEntity
  8
Specimen Conv. Phase 2
100
AcDbLine
 10
905.9527895905677
 20
2138.712791921973
 30
0.0
 11
905.9527895905677
 21
2144.224613729178
 31
0.0
  0
LINE
  5
8F5
330
1F
100
AcDbEntity
  8
Specimen Conv. Phase 2
100
AcDbLine
 10
905.9527895905677
 20
2144.224613729178
 30
0.0
 11
928.8157799176779
 21
2144.224613729178
 31
0.0
  0
LINE
  5
8F6
330
1F
100
AcDbEntity
  8
Specimen Conv. Phase 2
100
AcDbLine
 10
928.8157799176779
 20
2152.224613729179
 30
0.0
 11
928.8157799176779
 21
2146.712791921973
 31
0.0
  0
LINE
  5
8F7
330
1F
100
AcDbEntity
  8
Specimen Conv. Phase 2
100
AcDbLine
 10
844.5360516152696
 20
2138.712798944636
 30
0.0
 11
905.9527895905677
 21
2138.712798944636
 31
0.0
  0
LINE
  5
8F8
330
1F
100
AcDbEntity
  8
Specimen Conv. Phase 2
100
AcDbLine
 10
905.9527895905677
 20
2138.712798944636
 30
0.0
 11
905.9527895905677
 21
2144.224609968258
 31
0.0
  0
LINE
  5
8F9
330
1F
100
AcDbEntity
  8
Specimen Conv. Phase 2
100
AcDbLine
 10
905.9527895905677
 20
2144.224609968258
 30
0.0
 11
849.7339979380859
 21
2144.224609968258
 31
0.0
  0
LINE
  5
8FA
330
1F
100
AcDbEntity
  8
Specimen Conv. Phase 2
  6
CENTER2
100
AcDbLine
 10
928.8157799176779
 20
2141.468697433784
 30
0.0
 11
905.9506926490659
 21
2141.46870901514
 31
0.0
  0
LINE
  5
8FB
330
1F
100
AcDbEntity
  8
Specimen Conv. Phase 2
  6
CENTER2
100
AcDbLine
 10
905.9506926490659
 20
2141.46870901514
 30
0.0
 11
844.5360516152696
 21
2141.46870901514
 31
0.0
  0
LWPOLYLINE
  5
8FC
330
1F
100
AcDbEntity
  8
Specimen Conv. Phase 2
100
AcDbPolyline
 90
       12
 70
     1
 43
0.0
 10
844.5360516152696
 20
2138.645869352107
 10
847.1864016510709
 20
2138.645869352107
 42
-0.1313963079292086
 10
854.3602999184852
 20
2136.727501255004
 10
861.2090407178303
 20
2132.76607240251
 42
0.132059329964377
 10
871.1400120254886
 20
2130.105076660564
 10
883.1400120254885
 20
2130.105076660564
 10
883.1400120254885
 20
2135.808731772262
 10
871.1887493735021
 20
2135.808731772262
 42
-0.1314140735473828
 10
864.0158550104215
 20
2137.727099869366
 10
856.8728432309264
 20
2141.854205592017
 42
0.1361428090461053
 10
847.2361429034108
 20
2144.349524463805
 10
844.5360516152696
 20
2144.345869352108
  0
LINE
  5
8FD
330
1F
100
AcDbEntity
  8
Specimen Conv. Phase 2
370
    50
100
AcDbLine
 10
905.9811342483854
 20
2157.216739713431
 30
0.0
 11
932.9968822798774
 21
2157.216739713431
 31
0.0
  0
LINE
  5
8FE
330
1F
100
AcDbEntity
  8
Specimen Conv. Phase 2
370
    50
100
AcDbLine
 10
905.9811342483854
 20
2157.216739713431
 30
0.0
 11
905.9811342483854
 21
2184.232487744923
 31
0.0
  0
LINE
  5
8FF
330
1F
100
AcDbEntity
  8
Specimen Conv. Phase 2
100
AcDbLine
 10
1056.266380650549
 20
1415.693413479184
 30
0.0
 11
1056.266380650549
 21
1416.068413479184
 31
0.0
  0
ARC
  5
900
330
1F
100
AcDbEntity
  8
Specimen Conv. Phase 2
100
AcDbCircle
 10
1056.516380650549
 20
1416.068413479184
 30
0.0
 40
0.25
100
AcDbArc
 50
90.0
 51
180.0
  0
LINE
  5
901
330
1F
100
AcDbEntity
  8
Specimen Conv. Phase 2
100
AcDbLine
 10
1056.516380650549
 20
1416.318413479184
 30
0.0
 11
1063.391380650549
 21
1416.318413479184
 31
0.0
  0
ARC
  5
902
330
1F
100
AcDbEntity
  8
Specimen Conv. Phase 2
100
AcDbCircle
 10
1063.391380650549
 20
1416.568413479184
 30
0.0
 40
0.25
100
AcDbArc
 50
270.0
 51
0.0
  0
LINE
  5
903
330
1F
100
AcDbEntity
  8
Specimen Conv. Phase 2
100
AcDbLine
 10
1063.641380650549
 20
1416.568413479184
 30
0.0
 11
1063.641380650549
 21
1429.818413479184
 31
0.0
  0
ARC
  5
904
330
1F
100
AcDbEntity
  8
Specimen Conv. Phase 2
100
AcDbCircle
 10
1063.391380650549
 20
1429.818413479184
 30
0.0
 40
0.25
100
AcDbArc
 50
0.0
 51
90.0
  0
LINE
  5
905
330
1F
100
AcDbEntity
  8
Specimen Conv. Phase 2
100
AcDbLine
 10
1063.391380650549
 20
1430.068413479184
 30
0.0
 11
1056.516380650549
 21
1430.068413479184
 31
0.0
  0
ARC
  5
906
330
1F
100
AcDbEntity
  8
Specimen Conv. Phase 2
100
AcDbCircle
 10
1056.516380650549
 20
1430.318413479184
 30
0.0
 40
0.25
100
AcDbArc
 50
180.0
 51
270.0
  0
LINE
  5
907
330
1F
100
AcDbEntity
  8
Specimen Conv. Phase 2
100
AcDbLine
 10
1056.266380650549
 20
1430.318413479184
 30
0.0
 11
1056.266380650549
 21
1430.693413479184
 31
0.0
  0
LINE
  5
908
330
1F
100
AcDbEntity
  8
Specimen Conv. Phase 2
100
AcDbLine
 10
1056.266380650549
 20
1430.693413479184
 30
0.0
 11
1071.266380650549
 21
1430.693413479184
 31
0.0
  0
LINE
  5
909
330
1F
100
AcDbEntity
  8
Specimen Conv. Phase 2
100
AcDbLine
 10
1071.266380650549
 20
1430.693413479184
 30
0.0
 11
1071.266380650549
 21
1430.318413479184
 31
0.0
  0
ARC
  5
90A
330
1F
100
AcDbEntity
  8
Specimen Conv. Phase 2
100
AcDbCircle
 10
1071.016380650549
 20
1430.318413479184
 30
0.0
 40
0.25
100
AcDbArc
 50
270.0
 51
0.0
  0
LINE
  5
90B
330
1F
100
AcDbEntity
  8
Specimen Conv. Phase 2
100
AcDbLine
 10
1071.016380650549
 20
1430.068413479184
 30
0.0
 11
1064.141380650549
 21
1430.068413479184
 31
0.0
  0
ARC
  5
90C
330
1F
100
AcDbEntity
  8
Specimen Conv. Phase 2
100
AcDbCircle
 10
1064.141380650549
 20
1429.818413479184
 30
0.0
 40
0.25
100
AcDbArc
 50
90.0
 51
180.0
  0
LINE
  5
90D
330
1F
100
AcDbEntity
  8
Specimen Conv. Phase 2
100
AcDbLine
 10
1063.891380650549
 20
1429.818413479184
 30
0.0
 11
1063.891380650549
 21
1416.568413479184
 31
0.0
  0
ARC
  5
90E
330
1F
100
AcDbEntity
  8
Specimen Conv. Phase 2
100
AcDbCircle
 10
1064.141380650549
 20
1416.568413479184
 30
0.0
 40
0.25
100
AcDbArc
 50
180.0
 51
270.0
  0
LINE
  5
90F
330
1F
100
AcDbEntity
  8
Specimen Conv. Phase 2
100
AcDbLine
 10
1064.141380650549
 20
1416.318413479184
 30
0.0
 11
1071.016380650549
 21
1416.318413479184
 31
0.0
  0
ARC
  5
910
330
1F
100
AcDbEntity
  8
Specimen Conv. Phase 2
100
AcDbCircle
 10
1071.016380650549
 20
1416.068413479184
 30
0.0
 40
0.25
100
AcDbArc
 50
0.0
 51
90.0
  0
LINE
  5
911
330
1F
100
AcDbEntity
  8
Specimen Conv. Phase 2
100
AcDbLine
 10
1071.266380650549
 20
1416.068413479184
 30
0.0
 11
1071.266380650549
 21
1415.693413479184
 31
0.0
  0
LINE
  5
912
330
1F
100
AcDbEntity
  8
Specimen Conv. Phase 2
100
AcDbLine
 10
1071.266380650549
 20
1415.693413479184
 30
0.0
 11
1056.266380650549
 21
1415.693413479184
 31
0.0
  0
LINE
  5
913
330
1F
100
AcDbEntity
  8
Specimen Conv. Phase 2
100
AcDbLine
 10
1056.266380650549
 20
1430.693413479184
 30
0.0
 11
1071.266380650549
 21
1415.693413479184
 31
0.0
  0
LINE
  5
914
330
1F
100
AcDbEntity
  8
Specimen Conv. Phase 2
100
AcDbLine
 10
1056.266380650549
 20
1415.693413479184
 30
0.0
 11
1071.266380650549
 21
1430.693413479184
 31
0.0
  0
LINE
  5
915
330
1F
100
AcDbEntity
  8
Specimen Conv. Phase 2
100
AcDbLine
 10
696.2663806505489
 20
1415.693413479184
 30
0.0
 11
696.2663806505489
 21
1416.068413479184
 31
0.0
  0
ARC
  5
916
330
1F
100
AcDbEntity
  8
Specimen Conv. Phase 2
100
AcDbCircle
 10
696.5163806505489
 20
1416.068413479184
 30
0.0
 40
0.25
100
AcDbArc
 50
90.0
 51
180.0
  0
LINE
  5
917
330
1F
100
AcDbEntity
  8
Specimen Conv. Phase 2
100
AcDbLine
 10
696.5163806505489
 20
1416.318413479184
 30
0.0
 11
703.391380650549
 21
1416.318413479184
 31
0.0
  0
ARC
  5
918
330
1F
100
AcDbEntity
  8
Specimen Conv. Phase 2
100
AcDbCircle
 10
703.391380650549
 20
1416.568413479184
 30
0.0
 40
0.25
100
AcDbArc
 50
270.0
 51
0.0
  0
LINE
  5
919
330
1F
100
AcDbEntity
  8
Specimen Conv. Phase 2
100
AcDbLine
 10
703.6413806505489
 20
1416.568413479184
 30
0.0
 11
703.6413806505489
 21
1429.818413479184
 31
0.0
  0
ARC
  5
91A
330
1F
100
AcDbEntity
  8
Specimen Conv. Phase 2
100
AcDbCircle
 10
703.391380650549
 20
1429.818413479184
 30
0.0
 40
0.25
100
AcDbArc
 50
0.0
 51
90.0
  0
LINE
  5
91B
330
1F
100
AcDbEntity
  8
Specimen Conv. Phase 2
100
AcDbLine
 10
703.391380650549
 20
1430.068413479184
 30
0.0
 11
696.5163806505489
 21
1430.068413479184
 31
0.0
  0
ARC
  5
91C
330
1F
100
AcDbEntity
  8
Specimen Conv. Phase 2
100
AcDbCircle
 10
696.5163806505489
 20
1430.318413479184
 30
0.0
 40
0.25
100
AcDbArc
 50
180.0
 51
270.0
  0
LINE
  5
91D
330
1F
100
AcDbEntity
  8
Specimen Conv. Phase 2
100
AcDbLine
 10
696.2663806505489
 20
1430.318413479184
 30
0.0
 11
696.2663806505489
 21
1430.693413479184
 31
0.0
  0
LINE
  5
91E
330
1F
100
AcDbEntity
  8
Specimen Conv. Phase 2
100
AcDbLine
 10
696.2663806505489
 20
1430.693413479184
 30
0.0
 11
711.2663806505489
 21
1430.693413479184
 31
0.0
  0
LINE
  5
91F
330
1F
100
AcDbEntity
  8
Specimen Conv. Phase 2
100
AcDbLine
 10
711.2663806505489
 20
1430.693413479184
 30
0.0
 11
711.2663806505489
 21
1430.318413479184
 31
0.0
  0
ARC
  5
920
330
1F
100
AcDbEntity
  8
Specimen Conv. Phase 2
100
AcDbCircle
 10
711.0163806505489
 20
1430.318413479184
 30
0.0
 40
0.25
100
AcDbArc
 50
270.0
 51
0.0
  0
LINE
  5
921
330
1F
100
AcDbEntity
  8
Specimen Conv. Phase 2
100
AcDbLine
 10
711.0163806505489
 20
1430.068413479184
 30
0.0
 11
704.1413806505489
 21
1430.068413479184
 31
0.0
  0
ARC
  5
922
330
1F
100
AcDbEntity
  8
Specimen Conv. Phase 2
100
AcDbCircle
 10
704.1413806505489
 20
1429.818413479184
 30
0.0
 40
0.25
100
AcDbArc
 50
90.0
 51
180.0
  0
LINE
  5
923
330
1F
100
AcDbEntity
  8
Specimen Conv. Phase 2
100
AcDbLine
 10
703.8913806505489
 20
1429.818413479184
 30
0.0
 11
703.8913806505489
 21
1416.568413479184
 31
0.0
  0
ARC
  5
924
330
1F
100
AcDbEntity
  8
Specimen Conv. Phase 2
100
AcDbCircle
 10
704.1413806505489
 20
1416.568413479184
 30
0.0
 40
0.25
100
AcDbArc
 50
180.0
 51
270.0
  0
LINE
  5
925
330
1F
100
AcDbEntity
  8
Specimen Conv. Phase 2
100
AcDbLine
 10
704.1413806505489
 20
1416.318413479184
 30
0.0
 11
711.0163806505489
 21
1416.318413479184
 31
0.0
  0
ARC
  5
926
330
1F
100
AcDbEntity
  8
Specimen Conv. Phase 2
100
AcDbCircle
 10
711.0163806505489
 20
1416.068413479184
 30
0.0
 40
0.25
100
AcDbArc
 50
0.0
 51
90.0
  0
LINE
  5
927
330
1F
100
AcDbEntity
  8
Specimen Conv. Phase 2
100
AcDbLine
 10
711.2663806505489
 20
1416.068413479184
 30
0.0
 11
711.2663806505489
 21
1415.693413479184
 31
0.0
  0
LINE
  5
928
330
1F
100
AcDbEntity
  8
Specimen Conv. Phase 2
100
AcDbLine
 10
711.2663806505489
 20
1415.693413479184
 30
0.0
 11
696.2663806505489
 21
1415.693413479184
 31
0.0
  0
LINE
  5
929
330
1F
100
AcDbEntity
  8
Specimen Conv. Phase 2
100
AcDbLine
 10
696.2663806505489
 20
1430.693413479184
 30
0.0
 11
711.2663806505489
 21
1415.693413479184
 31
0.0
  0
LINE
  5
92A
330
1F
100
AcDbEntity
  8
Specimen Conv. Phase 2
100
AcDbLine
 10
696.2663806505489
 20
1415.693413479184
 30
0.0
 11
711.2663806505489
 21
1430.693413479184
 31
0.0
  0
CIRCLE
  5
9DC
330
1F
100
AcDbEntity
  8
Specimen Conv. Phase 2
370
    50
100
AcDbCircle
 10
921.7496399455212
 20
2417.871998846355
 30
0.0
 40
21.5440743932013
  0
LWPOLYLINE
  5
9DD
330
1F
100
AcDbEntity
  8
Specimen Conv. Phase 2
370
    50
100
AcDbPolyline
 90
        4
 70
     1
 43
0.0
 38
-200.8507310852956
 10
940.97034469365
 20
2408.43636473611
 10
934.7821281571359
 20
2408.43636473611
 10
934.7821281571359
 20
2381.365963952989
 10
940.97034469365
 20
2381.365963952989
  0
LINE
  5
9DE
330
1F
100
AcDbEntity
  8
Specimen Conv. Phase 2
370
    50
100
AcDbLine
 10
940.97034469365
 20
2408.43636473611
 30
-200.8507310852956
 11
921.7496399455212
 21
2417.871998846355
 31
0.0
  0
LWPOLYLINE
  5
9DF
330
1F
100
AcDbEntity
  8
Specimen Conv. Phase 2
370
    50
100
AcDbPolyline
 90
        4
 70
     1
 43
0.0
 38
-200.8507310852956
 10
912.3140058352765
 20
2398.651294098225
 10
912.3140058352765
 20
2404.83951063474
 10
885.2436050521555
 20
2404.83951063474
 10
885.2436050521555
 20
2398.651294098225
  0
LINE
  5
9E0
330
1F
100
AcDbEntity
  8
Specimen Conv. Phase 2
370
    50
100
AcDbLine
 10
912.3140058352765
 20
2398.651294098225
 30
-200.8507310852956
 11
921.7496399455212
 21
2417.871998846355
 31
0.0
  0
TEXT
  5
9E1
330
1F
100
AcDbEntity
  8
Specimen Conv. Phase 2
100
AcDbText
 10
886.6029267375816
 20
2400.106100867581
 30
0.3414130897677746
 40
3.480341523041913
  1
Output
 72
     3
 11
901.1985199733672
 21
2400.106100867581
 31
0.3414130897677746
100
AcDbText
  0
TEXT
  5
9E2
330
1F
100
AcDbEntity
  8
Specimen Conv. Phase 2
100
AcDbText
 10
937.1781046466457
 20
2406.591930683328
 30
0.5420844342645659
 40
2.012539073146411
  1
Inbound @ Ceiling
 50
270.0
 72
     3
 11
937.1781046466457
 21
2383.41752952795
 31
0.5420844342645659
100
AcDbText
  0
CIRCLE
  5
9E3
330
1F
100
AcDbEntity
  8
Specimen Conv. Phase 2
370
    50
100
AcDbCircle
 10
921.7496399455212
 20
2417.871998846355
 30
0.0
 40
21.5440743932013
  0
LWPOLYLINE
  5
9E4
330
1F
100
AcDbEntity
  8
Specimen Conv. Phase 2
370
    50
100
AcDbPolyline
 90
        4
 70
     1
 43
0.0
 38
-200.8507310852956
 10
940.97034469365
 20
2408.43636473611
 10
934.7821281571359
 20
2408.43636473611
 10
934.7821281571359
 20
2381.365963952989
 10
940.97034469365
 20
2381.365963952989
  0
LINE
  5
9E5
330
1F
100
AcDbEntity
  8
Specimen Conv. Phase 2
370
    50
100
AcDbLine
 10
940.97034469365
 20
2408.43636473611
 30
-200.8507310852956
 11
921.7496399455212
 21
2417.871998846355
 31
0.0
  0
LWPOLYLINE
  5
9E6
330
1F
100
AcDbEntity
  8
Specimen Conv. Phase 2
370
    50
100
AcDbPolyline
 90
        4
 70
     1
 43
0.0
 38
-200.8507310852956
 10
912.3140058352765
 20
2398.651294098225
 10
912.3140058352765
 20
2404.83951063474
 10
885.2436050521555
 20
2404.83951063474
 10
885.2436050521555
 20
2398.651294098225
  0
LINE
  5
9E7
330
1F
100
AcDbEntity
  8
Specimen Conv. Phase 2
370
    50
100
AcDbLine
 10
912.3140058352765
 20
2398.651294098225
 30
-200.8507310852956
 11
921.7496399455212
 21
2417.871998846355
 31
0.0
  0
MULTILEADER
  5
B92
330
1F
100
AcDbEntity
  8
Dims Magenta 1.5
 62
   219
420
  6562149
160
              1088
310
400400001C0000000C00000016000000652164C20C00000033000000000000000C00000013000000993A00000C00000016000000652164C2CC000000260000006AE63373B6F7884002A75F18E32E8D401CA16530391B69C000000000000000000000000000000000000000000000F03F075C143326A6913C000000000000F0
310
3F000000000000000044006F00750062006C00650020004400650063006B006500720000000D000000010000000000000000002040000000000000F03F0000000000000000000000000000F03F00000000000000000000000000000000000000000000000000000000010000002200000041007200690061006C0000000000
310
0000000069000C00000016000000652164C2C800000026000000CC15338478638940E4695AF354318D401CA16530391B69C000000000000000000000000000000000000000000000F03F075C143326A6913C000000000000F03F000000000000000043006F006E007600650079006F007200200054006F0000000B00000001
310
0000000000000000002040000000000000F03F0000000000000000000000000000F03F00000000000000000000000000000000000000000000000000000000010000002200000041007200690061006C00000000000000000000000C00000016000000652164C2D0000000260000002E4532953ACF8940FA9EE2B5C4318D40
310
1CA16530391B69C000000000000000000000000000000000000000000000F03F075C143326A6913C000000000000F03F000000000000000053006800610072006500200053007500700070006F00720074007300000000000E000000010000000000000000002040000000000000F03F0000000000000000000000000000F0
310
3F00000000000000000000000000000000000000000000000000000000010000002200000041007200690061006C00000000000000000000000C00000033000000000000000C00000010000000060000000C00000016000000652164C20C00000012000000FF7F00000C00000013000000010000000C000000140000000100
310
00005400000007000000030000007C249308A2678B40B42653D079D08A401CA16530391B69C0519BE542DBAD8B40D18A4FF7D8928A401CA16530391B69C0ACDCC6F570578B40CB9D158F5EB68A401CA16530391B69C00C00000013000000891300003C000000060000000200000094002D7F895F8B404062B42F6CC38A401C
310
A16530391B69C052B887C398E08840F172E66BB44F8C401CA16530391B69C00C00000013000000112700003C000000060000000200000052B887C398E08840F172E66BB44F8C401CA16530391B69C052B887C398E08840F172E66BB4078D401CA16530391B69C00C00000016000000652164C20C00000012000000FF7F0000
310
0C00000017000000000000000C000000130000009A3A00000C00000016000000652164C20C00000012000000FF7F00000C00000017000000FFFFFFFF0C0000003300000000000000
100
AcDbMLeader
270
     2
300
CONTEXT_DATA{
 40
64.0
 10
796.0745916941761
 20
928.9630964282824
 30
-200.8507310852955
 41
8.0
140
11.52
145
5.759999999999999
174
     1
175
     1
176
     0
177
     0
290
     1
304
Double Decker \PConveyor To\PShare Supports
 11
0.0
 21
0.0
 31
1.0
340
11
 12
790.9640869192783
 22
934.7230964282809
 32
-200.8507310852955
 13
0.0000000000000001
 23
1.0
 33
0.0
 42
1.570796326794896
 43
0.0
 44
0.0
 45
1.0
170
     1
 90
-1033625243
171
     1
172
     5
 91
-1073741824
141
0.0
 92
        0
291
     0
292
     0
173
     0
293
     0
142
0.0
143
0.0
294
     0
295
     0
296
     0
110
1053.732061189463
120
850.3559404577483
130
-200.8507310852955
111
0.0000000000000001
121
1.0
131
0.0
112
-1.0
122
0.0000000000000001
132
0.0
297
     0
302
LEADER{
290
     1
291
     1
 10
796.0745916941761
 20
905.9630964282824
 30
-200.8507310852955
 11
0.0000000000000001
 21
1.0
 31
0.0
 90
        0
 40
23.0
304
LEADER_LINE{
 10
885.732061189463
 20
850.3559404577483
 30
-200.8507310852955
 91
        0
305
}
271
     0
303
}
272
     9
273
     9
301
}
340
A27
 90
   279552
170
     1
 91
-1073741824
341
14
171
    -2
290
     1
291
     1
 41
0.359375
 42
0.18
172
     2
343
11
173
     1
 95
        1
174
     1
175
     0
 92
-1073741824
292
     0
 93
-1056964608
 10
1.0
 20
1.0
 30
1.0
 43
0.0
176
     0
293
     0
294
     0
178
     0
179
     1
 45
64.0
271
     0
272
     9
273
     9
295
     0
  0
ARC
  5
B93
330
1F
100
AcDbEntity
  8
Conv Magenta 1.5
100
AcDbCircle
 10
47.26395095324119
 20
755.7598774656418
 30
-200.8507310852954
 40
15.748031496063
100
AcDbArc
 50
90.0
 51
180.0
  0
ARC
  5
B94
330
1F
100
AcDbEntity
  8
Conv Magenta 1.5
100
AcDbCircle
 10
47.26395095324119
 20
755.7598774656418
 30
-200.8507310852954
 40
18.50393700787402
100
AcDbArc
 50
90.0
 51
180.0
  0
ARC
  5
B95
330
1F
100
AcDbEntity
  8
Conv Magenta 1.5
100
AcDbCircle
 10
47.26395095324119
 20
755.7598774656418
 30
-200.8507310852954
 40
12.99212598425197
100
AcDbArc
 50
90.0
 51
180.0
  0
LINE
  5
B96
330
1F
100
AcDbEntity
  8
Conv Magenta 1.5
100
AcDbLine
 10
34.27182496898991
 20
755.7598774656418
 30
-200.8507310852954
 11
28.76001394536729
 21
755.7598774656418
 31
-200.8507310852954
  0
LINE
  5
B97
330
1F
100
AcDbEntity
  8
Conv Magenta 1.5
100
AcDbLine
 10
34.27182496898991
 20
752.6102711664263
 30
-200.8507310852954
 11
28.76001394536729
 21
752.6102711664263
 31
-200.8507310852954
  0
LINE
  5
B98
330
1F
100
AcDbEntity
  8
Conv Magenta 1.5
100
AcDbLine
 10
34.27182496898991
 20
752.6102711664263
 30
-200.8507310852954
 11
34.27182496898991
 21
755.7598774656418
 31
-200.8507310852954
  0
LINE
  5
B99
330
1F
100
AcDbEntity
  8
Conv Magenta 1.5
100
AcDbLine
 10
28.76001394536729
 20
752.6102711664263
 30
-200.8507310852954
 11
28.76001394536729
 21
755.7598774656418
 31
-200.8507310852954
  0
LINE
  5
B9A
330
1F
100
AcDbEntity
  8
Conv Magenta 1.5
100
AcDbLine
 10
47.26395095324119
 20
768.7520034498903
 30
-200.8507310852954
 11
47.26395095324119
 21
774.2638144735157
 31
-200.8507310852954
  0
LINE
  5
B9B
330
1F
100
AcDbEntity
  8
Conv Magenta 1.5
100
AcDbLine
 10
50.41355725245399
 20
768.7520034498903
 30
-200.8507310852954
 11
50.41355725245399
 21
774.2638144735157
 31
-200.8507310852954
  0
LINE
  5
B9C
330
1F
100
AcDbEntity
  8
Conv Magenta 1.5
100
AcDbLine
 10
47.26395095324119
 20
768.7520034498903
 30
-200.8507310852954
 11
50.41355725245399
 21
768.7520034498903
 31
-200.8507310852954
  0
LINE
  5
B9D
330
1F
100
AcDbEntity
  8
Conv Magenta 1.5
100
AcDbLine
 10
50.41355725245399
 20
774.2638144735157
 30
-200.8507310852954
 11
47.26395095324119
 21
774.2638144735157
 31
-200.8507310852954
  0
LINE
  5
B9E
330
1F
100
AcDbEntity
  8
Conv Magenta 1.5
100
AcDbLine
 10
31.51591945717814
 20
755.7598774656418
 30
-200.8507310852954
 11
31.51591945717814
 21
752.6102711664263
 31
-200.8507310852954
  0
LINE
  5
B9F
330
1F
100
AcDbEntity
  8
Conv Magenta 1.5
100
AcDbLine
 10
47.26395095324119
 20
771.5079089617012
 30
-200.8507310852954
 11
50.41355725245399
 21
771.5079089617012
 31
-200.8507310852954
  0
ARC
  5
BA0
330
1F
100
AcDbEntity
  8
Conv Magenta 1.5
100
AcDbCircle
 10
872.834029693463
 20
787.2559404578152
 30
-200.8507310852956
 40
15.748031496063
100
AcDbArc
 50
270.0
 51
0.0
  0
ARC
  5
BA1
330
1F
100
AcDbEntity
  8
Conv Magenta 1.5
100
AcDbCircle
 10
872.834029693463
 20
787.2559404578152
 30
-200.8507310852956
 40
18.50393700787402
100
AcDbArc
 50
270.0
 51
0.0
  0
ARC
  5
BA2
330
1F
100
AcDbEntity
  8
Conv Magenta 1.5
100
AcDbCircle
 10
872.834029693463
 20
787.2559404578152
 30
-200.8507310852956
 40
12.99212598425197
100
AcDbArc
 50
270.0
 51
0.0
  0
LINE
  5
BA3
330
1F
100
AcDbEntity
  8
Conv Magenta 1.5
100
AcDbLine
 10
885.8261556777144
 20
787.2559404578152
 30
-200.8507310852956
 11
891.3379667013369
 21
787.2559404578152
 31
-200.8507310852956
  0
LINE
  5
BA4
330
1F
100
AcDbEntity
  8
Conv Magenta 1.5
100
AcDbLine
 10
885.8261556777144
 20
790.4055467570307
 30
-200.8507310852956
 11
891.3379667013369
 21
790.4055467570307
 31
-200.8507310852956
  0
LINE
  5
BA5
330
1F
100
AcDbEntity
  8
Conv Magenta 1.5
100
AcDbLine
 10
885.8261556777144
 20
790.4055467570307
 30
-200.8507310852956
 11
885.8261556777144
 21
787.2559404578152
 31
-200.8507310852956
  0
LINE
  5
BA6
330
1F
100
AcDbEntity
  8
Conv Magenta 1.5
100
AcDbLine
 10
891.3379667013369
 20
790.4055467570307
 30
-200.8507310852956
 11
891.3379667013369
 21
787.2559404578152
 31
-200.8507310852956
  0
LINE
  5
BA7
330
1F
100
AcDbEntity
  8
Conv Magenta 1.5
100
AcDbLine
 10
872.834029693463
 20
774.2638144735666
 30
-200.8507310852956
 11
872.834029693463
 21
768.7520034499413
 31
-200.8507310852956
  0
LINE
  5
BA8
330
1F
100
AcDbEntity
  8
Conv Magenta 1.5
100
AcDbLine
 10
869.6844233942504
 20
774.2638144735666
 30
-200.8507310852956
 11
869.6844233942504
 21
768.7520034499413
 31
-200.8507310852956
  0
LINE
  5
BA9
330
1F
100
AcDbEntity
  8
Conv Magenta 1.5
100
AcDbLine
 10
872.834029693463
 20
774.2638144735666
 30
-200.8507310852956
 11
869.6844233942504
 21
774.2638144735666
 31
-200.8507310852956
  0
LINE
  5
BAA
330
1F
100
AcDbEntity
  8
Conv Magenta 1.5
100
AcDbLine
 10
869.6844233942504
 20
768.7520034499413
 30
-200.8507310852956
 11
872.834029693463
 21
768.7520034499413
 31
-200.8507310852956
  0
LINE
  5
BAB
330
1F
100
AcDbEntity
  8
Conv Magenta 1.5
100
AcDbLine
 10
888.5820611895253
 20
787.2559404578152
 30
-200.8507310852956
 11
888.5820611895262
 21
790.4055467570307
 31
-200.8507310852956
  0
LINE
  5
BAC
330
1F
100
AcDbEntity
  8
Conv Magenta 1.5
100
AcDbLine
 10
872.834029693463
 20
771.5079089617558
 30
-200.8507310852956
 11
869.6844233942504
 21
771.5079089617558
 31
-200.8507310852956
  0
LINE
  5
BAD
330
1F
100
AcDbEntity
  8
Conv Magenta 1.5
100
AcDbLine
 10
34.27182496900434
 20
-643.4239355029729
 30
-200.8507310852954
 11
28.76001394538173
 21
-643.4239355029729
 31
-200.8507310852954
  0
ARC
  5
BAE
330
1F
100
AcDbEntity
  8
Conv Magenta 1.5
100
AcDbCircle
 10
15.76788796112959
 20
79.74388286747319
 30
-200.8507310852954
 40
15.748031496063
100
AcDbArc
 50
0.0
 51
14.99999999934744
  0
ARC
  5
BAF
330
1F
100
AcDbEntity
  8
Conv Magenta 1.5
100
AcDbCircle
 10
15.76788796112959
 20
79.74388286747319
 30
-200.8507310852954
 40
18.50393700787402
100
AcDbArc
 50
0.0
 51
14.99999999934744
  0
ARC
  5
BB0
330
1F
100
AcDbEntity
  8
Conv Magenta 1.5
100
AcDbCircle
 10
15.76788796112959
 20
79.74388286747319
 30
-200.8507310852954
 40
12.99212598425197
100
AcDbArc
 50
0.0
 51
14.99999999934744
  0
LINE
  5
BB1
330
1F
100
AcDbEntity
  8
Conv Magenta 1.5
100
AcDbLine
 10
28.76001394538088
 20
79.74388286747319
 30
-200.8507310852954
 11
34.27182496900349
 21
79.74388286747319
 31
-200.8507310852954
  0
LINE
  5
BB2
330
1F
100
AcDbEntity
  8
Conv Magenta 1.5
100
AcDbLine
 10
28.76001394538088
 20
76.59427656826131
 30
-200.8507310852954
 11
34.27182496900349
 21
76.59427656826131
 31
-200.8507310852954
  0
LINE
  5
BB3
330
1F
100
AcDbEntity
  8
Conv Magenta 1.5
100
AcDbLine
 10
28.76001394538088
 20
79.74388286747319
 30
-200.8507310852954
 11
28.76001394538088
 21
76.59427656826131
 31
-200.8507310852954
  0
LINE
  5
BB4
330
1F
100
AcDbEntity
  8
Conv Magenta 1.5
100
AcDbLine
 10
34.27182496900349
 20
76.59427656826131
 30
-200.8507310852954
 11
34.27182496900349
 21
79.74388286747319
 31
-200.8507310852954
  0
LINE
  5
BB5
330
1F
100
AcDbEntity
  8
Conv Magenta 1.5
100
AcDbLine
 10
31.51591945719264
 20
79.74388286747319
 30
-200.8507310852954
 11
31.51591945719264
 21
76.59427656826131
 31
-200.8507310852954
  0
LINE
  5
BB6
330
1F
100
AcDbEntity
  8
Conv Magenta 1.5
100
AcDbLine
 10
28.31731798772052
 20
83.10649250856853
 30
-200.8507310852954
 11
33.64131860506148
 21
84.53305417448985
 31
-200.8507310852954
  0
LINE
  5
BB7
330
1F
100
AcDbEntity
  8
Conv Magenta 1.5
100
AcDbLine
 10
27.50213989290859
 20
86.14877857562362
 30
-200.8507310852954
 11
32.82614051024956
 21
87.5753402415413
 31
-200.8507310852954
  0
LINE
  5
BB8
330
1F
100
AcDbEntity
  8
Conv Magenta 1.5
100
AcDbLine
 10
22.40727680033905
 20
105.1630664946989
 30
-200.8507310852954
 11
27.73127741768002
 21
106.5896281606166
 31
-200.8507310852954
  0
LINE
  5
BB9
330
1F
100
AcDbEntity
  8
Conv Magenta 1.5
100
AcDbLine
 10
27.73127741768093
 20
106.5896281606166
 30
-200.8507310852954
 11
33.64131860506148
 21
84.53305417448985
 31
-200.8507310852954
  0
LINE
  5
BBA
330
1F
100
AcDbEntity
  8
Conv Magenta 1.5
100
AcDbLine
 10
22.40727680033905
 20
105.1630664946989
 30
-200.8507310852954
 11
28.31731798771961
 21
83.10649250856853
 31
-200.8507310852954
  0
LINE
  5
BBB
330
1F
100
AcDbEntity
  8
Conv Magenta 1.5
100
AcDbLine
 10
30.97931829638964
 20
83.81977334152736
 30
-200.8507310852954
 11
30.16414020157862
 21
86.86205940858247
 31
-200.8507310852954
  0
ARC
  5
BBC
330
1F
100
AcDbEntity
  8
Conv Magenta 1.5
100
AcDbCircle
 10
47.26395095325568
 20
107.5949924662474
 30
-200.8507310852954
 40
15.748031496063
100
AcDbArc
 50
180.0
 51
194.9999999993474
  0
ARC
  5
BBD
330
1F
100
AcDbEntity
  8
Conv Magenta 1.5
100
AcDbCircle
 10
47.26395095325568
 20
107.5949924662474
 30
-200.8507310852954
 40
18.50393700787402
100
AcDbArc
 50
180.0
 51
194.9999999993474
  0
ARC
  5
BBE
330
1F
100
AcDbEntity
  8
Conv Magenta 1.5
100
AcDbCircle
 10
47.26395095325568
 20
107.5949924662474
 30
-200.8507310852954
 40
12.99212598425197
100
AcDbArc
 50
180.0
 51
194.9999999993474
  0
LINE
  5
BBF
330
1F
100
AcDbEntity
  8
Conv Magenta 1.5
100
AcDbLine
 10
34.27182496900349
 20
107.5949924662474
 30
-200.8507310852954
 11
28.76001394538088
 21
107.5949924662474
 31
-200.8507310852954
  0
LINE
  5
BC0
330
1F
100
AcDbEntity
  8
Conv Magenta 1.5
100
AcDbLine
 10
34.27182496900349
 20
110.7445987654593
 30
-200.8507310852954
 11
28.76001394538088
 21
110.7445987654593
 31
-200.8507310852954
  0
LINE
  5
BC1
330
1F
100
AcDbEntity
  8
Conv Magenta 1.5
100
AcDbLine
 10
34.27182496900349
 20
107.5949924662474
 30
-200.8507310852954
 11
34.27182496900349
 21
110.7445987654593
 31
-200.8507310852954
  0
LINE
  5
BC2
330
1F
100
AcDbEntity
  8
Conv Magenta 1.5
100
AcDbLine
 10
28.76001394538088
 20
110.7445987654593
 30
-200.8507310852954
 11
28.76001394538088
 21
107.5949924662474
 31
-200.8507310852954
  0
LINE
  5
BC3
330
1F
100
AcDbEntity
  8
Conv Magenta 1.5
100
AcDbLine
 10
31.51591945719264
 20
107.5949924662474
 30
-200.8507310852954
 11
31.51591945719264
 21
110.7445987654593
 31
-200.8507310852954
  0
LINE
  5
BC4
330
1F
100
AcDbEntity
  8
Conv Magenta 1.5
100
AcDbLine
 10
34.71452092666385
 20
104.232382825152
 30
-200.8507310852954
 11
29.39052030932379
 21
102.8058211592307
 31
-200.8507310852954
  0
LINE
  5
BC5
330
1F
100
AcDbEntity
  8
Conv Magenta 1.5
100
AcDbLine
 10
35.52969902147578
 20
101.1900967580969
 30
-200.8507310852954
 11
30.20569840413481
 21
99.76353509217927
 31
-200.8507310852954
  0
LINE
  5
BC6
330
1F
100
AcDbEntity
  8
Conv Magenta 1.5
100
AcDbLine
 10
40.62456211404532
 20
82.17580883902167
 30
-200.8507310852954
 11
35.30056149670435
 21
80.74924717310398
 31
-200.8507310852954
  0
LINE
  5
BC7
330
1F
100
AcDbEntity
  8
Conv Magenta 1.5
100
AcDbLine
 10
35.30056149670435
 20
80.74924717310398
 30
-200.8507310852954
 11
29.39052030932379
 21
102.8058211592307
 31
-200.8507310852954
  0
LINE
  5
BC8
330
1F
100
AcDbEntity
  8
Conv Magenta 1.5
100
AcDbLine
 10
40.62456211404532
 20
82.17580883902167
 30
-200.8507310852954
 11
34.71452092666476
 21
104.232382825152
 31
-200.8507310852954
  0
LINE
  5
BC9
330
1F
100
AcDbEntity
  8
Conv Magenta 1.5
100
AcDbLine
 10
32.05252061799473
 20
103.5191019921932
 30
-200.8507310852954
 11
32.86769871280575
 21
100.4768159251381
 31
-200.8507310852954
  0
LINE
  5
BCA
330
1F
100
AcDbEntity
  8
Conv Magenta 1.5
100
AcDbLine
 10
28.76001394536991
 20
-643.4239355029547
 30
-200.8507310852954
 11
28.76001394536905
 21
76.59427656823948
 31
-200.8507310852954
  0
LINE
  5
BCB
330
1F
100
AcDbEntity
  8
Conv Magenta 1.5
100
AcDbLine
 10
34.27182496897706
 20
-643.4239355029547
 30
-200.8507310852954
 11
34.27182496897621
 21
76.59427656823948
 31
-200.8507310852954
  0
LINE
  5
BCC
330
1F
100
AcDbEntity
  8
Conv Magenta 1.5
100
AcDbLine
 10
28.76001394536905
 20
110.7445987654192
 30
-200.8507310852954
 11
28.76001394536911
 21
553.1621770870097
 31
-200.8507310852955
  0
LINE
  5
BCD
330
1F
100
AcDbEntity
  8
Conv Magenta 1.5
100
AcDbLine
 10
34.27182496897621
 20
110.7445987654192
 30
-200.8507310852954
 11
34.27182496897626
 21
553.1621770870097
 31
-200.8507310852954
  0
LINE
  5
BCE
330
1F
100
AcDbEntity
  8
Conv Magenta 1.5
100
AcDbLine
 10
28.76001394537093
 20
553.1621770870097
 30
-200.8507310852954
 11
28.76001394536911
 21
752.6102711664553
 31
-200.8507310852954
  0
LINE
  5
BCF
330
1F
100
AcDbEntity
  8
Conv Magenta 1.5
100
AcDbLine
 10
34.27182496897808
 20
553.1621770870097
 30
-200.8507310852954
 11
34.27182496897626
 21
752.6102711664553
 31
-200.8507310852954
  0
ARC
  5
BD0
330
1F
100
AcDbEntity
  8
Conv Magenta 1.5
100
AcDbCircle
 10
417.1986004890298
 20
787.2559404577897
 30
-200.8507310852954
 40
15.748031496063
100
AcDbArc
 50
270.0
 51
285.0000000001224
  0
ARC
  5
BD1
330
1F
100
AcDbEntity
  8
Conv Magenta 1.5
100
AcDbCircle
 10
417.1986004890298
 20
787.2559404577897
 30
-200.8507310852954
 40
18.50393700787402
100
AcDbArc
 50
270.0
 51
285.0000000001224
  0
ARC
  5
BD2
330
1F
100
AcDbEntity
  8
Conv Magenta 1.5
100
AcDbCircle
 10
417.1986004890298
 20
787.2559404577897
 30
-200.8507310852954
 40
12.99212598425197
100
AcDbArc
 50
270.0
 51
285.0000000001224
  0
LINE
  5
BD3
330
1F
100
AcDbEntity
  8
Conv Magenta 1.5
100
AcDbLine
 10
417.1986004890298
 20
774.2638144735411
 30
-200.8507310852954
 11
417.1986004890298
 21
768.7520034499158
 31
-200.8507310852954
  0
LINE
  5
BD4
330
1F
100
AcDbEntity
  8
Conv Magenta 1.5
100
AcDbLine
 10
414.0489941898169
 20
774.2638144735411
 30
-200.8507310852954
 11
414.0489941898169
 21
768.7520034499158
 31
-200.8507310852954
  0
LINE
  5
BD5
330
1F
100
AcDbEntity
  8
Conv Magenta 1.5
100
AcDbLine
 10
417.1986004890298
 20
774.2638144735411
 30
-200.8507310852954
 11
414.0489941898169
 21
774.2638144735411
 31
-200.8507310852954
  0
LINE
  5
BD6
330
1F
100
AcDbEntity
  8
Conv Magenta 1.5
100
AcDbLine
 10
414.0489941898169
 20
768.7520034499158
 30
-200.8507310852954
 11
417.1986004890298
 21
768.7520034499158
 31
-200.8507310852954
  0
LINE
  5
BD7
330
1F
100
AcDbEntity
  8
Conv Magenta 1.5
100
AcDbLine
 10
417.1986004890298
 20
771.5079089617303
 30
-200.8507310852954
 11
414.0489941898169
 21
771.5079089617303
 31
-200.8507310852954
  0
LINE
  5
BD8
330
1F
100
AcDbEntity
  8
Conv Magenta 1.5
100
AcDbLine
 10
420.561210130126
 20
774.7065104312006
 30
-200.8507310852954
 11
421.9877717960446
 21
769.3825098138606
 31
-200.8507310852954
  0
LINE
  5
BD9
330
1F
100
AcDbEntity
  8
Conv Magenta 1.5
100
AcDbLine
 10
423.6034961971775
 20
775.5216885260107
 30
-200.8507310852954
 11
425.0300578630969
 21
770.1976879086706
 31
-200.8507310852954
  0
LINE
  5
BDA
330
1F
100
AcDbEntity
  8
Conv Magenta 1.5
100
AcDbLine
 10
442.6177841162536
 20
780.6165516185812
 30
-200.8507310852954
 11
444.0443457821731
 21
775.2925510012411
 31
-200.8507310852954
  0
LINE
  5
BDB
330
1F
100
AcDbEntity
  8
Conv Magenta 1.5
100
AcDbLine
 10
444.0443457821722
 20
775.2925510012411
 30
-200.8507310852954
 11
421.9877717960446
 21
769.3825098138606
 31
-200.8507310852954
  0
LINE
  5
BDC
330
1F
100
AcDbEntity
  8
Conv Magenta 1.5
100
AcDbLine
 10
442.6177841162536
 20
780.6165516185812
 30
-200.8507310852954
 11
420.561210130126
 21
774.7065104312006
 31
-200.8507310852954
  0
LINE
  5
BDD
330
1F
100
AcDbEntity
  8
Conv Magenta 1.5
100
AcDbLine
 10
421.2744909630848
 20
772.0445101225323
 30
-200.8507310852954
 11
424.3167770301372
 21
772.8596882173425
 31
-200.8507310852954
  0
ARC
  5
BDE
330
1F
100
AcDbEntity
  8
Conv Magenta 1.5
100
AcDbCircle
 10
445.0497100878012
 20
755.7598774656672
 30
-200.8507310852954
 40
15.748031496063
100
AcDbArc
 50
90.0
 51
105.0000000001224
  0
ARC
  5
BDF
330
1F
100
AcDbEntity
  8
Conv Magenta 1.5
100
AcDbCircle
 10
445.0497100878012
 20
755.7598774656672
 30
-200.8507310852954
 40
18.50393700787402
100
AcDbArc
 50
90.0
 51
105.0000000001224
  0
ARC
  5
BE0
330
1F
100
AcDbEntity
  8
Conv Magenta 1.5
100
AcDbCircle
 10
445.0497100878012
 20
755.7598774656672
 30
-200.8507310852954
 40
12.99212598425197
100
AcDbArc
 50
90.0
 51
105.0000000001224
  0
LINE
  5
BE1
330
1F
100
AcDbEntity
  8
Conv Magenta 1.5
100
AcDbLine
 10
445.0497100878012
 20
768.7520034499158
 30
-200.8507310852954
 11
445.0497100878012
 21
774.2638144735411
 31
-200.8507310852954
  0
LINE
  5
BE2
330
1F
100
AcDbEntity
  8
Conv Magenta 1.5
100
AcDbLine
 10
448.199316387014
 20
768.7520034499158
 30
-200.8507310852954
 11
448.199316387014
 21
774.2638144735411
 31
-200.8507310852954
  0
LINE
  5
BE3
330
1F
100
AcDbEntity
  8
Conv Magenta 1.5
100
AcDbLine
 10
445.0497100878012
 20
768.7520034499158
 30
-200.8507310852954
 11
448.199316387014
 21
768.7520034499158
 31
-200.8507310852954
  0
LINE
  5
BE4
330
1F
100
AcDbEntity
  8
Conv Magenta 1.5
100
AcDbLine
 10
448.199316387014
 20
774.2638144735411
 30
-200.8507310852954
 11
445.0497100878012
 21
774.2638144735411
 31
-200.8507310852954
  0
LINE
  5
BE5
330
1F
100
AcDbEntity
  8
Conv Magenta 1.5
100
AcDbLine
 10
445.0497100878012
 20
771.5079089617266
 30
-200.8507310852954
 11
448.199316387014
 21
771.5079089617266
 31
-200.8507310852954
  0
LINE
  5
BE6
330
1F
100
AcDbEntity
  8
Conv Magenta 1.5
100
AcDbLine
 10
441.687100446705
 20
768.3093074922563
 30
-200.8507310852954
 11
440.2605387807855
 21
773.6333081095964
 31
-200.8507310852954
  0
LINE
  5
BE7
330
1F
100
AcDbEntity
  8
Conv Magenta 1.5
100
AcDbLine
 10
438.6448143796526
 20
767.4941293974463
 30
-200.8507310852954
 11
437.2182527137331
 21
772.8181300147863
 31
-200.8507310852954
  0
LINE
  5
BE8
330
1F
100
AcDbEntity
  8
Conv Magenta 1.5
100
AcDbLine
 10
419.6305264605773
 20
762.3992663048758
 30
-200.8507310852954
 11
418.2039647946578
 21
767.7232669222158
 31
-200.8507310852954
  0
LINE
  5
BE9
330
1F
100
AcDbEntity
  8
Conv Magenta 1.5
100
AcDbLine
 10
418.2039647946587
 20
767.7232669222158
 30
-200.8507310852954
 11
440.2605387807855
 21
773.6333081095964
 31
-200.8507310852954
  0
LINE
  5
BEA
330
1F
100
AcDbEntity
  8
Conv Magenta 1.5
100
AcDbLine
 10
419.6305264605773
 20
762.3992663048758
 30
-200.8507310852954
 11
441.687100446705
 21
768.3093074922563
 31
-200.8507310852954
  0
LINE
  5
BEB
330
1F
100
AcDbEntity
  8
Conv Magenta 1.5
100
AcDbLine
 10
440.9738196137461
 20
770.9713078009245
 30
-200.8507310852954
 11
437.9315335466937
 21
770.1561297061145
 31
-200.8507310852954
  0
ARC
  5
BEC
330
1F
100
AcDbEntity
  8
Conv Magenta 1.5
100
AcDbCircle
 10
810.6837074962633
 20
787.255940457837
 30
-200.8507310852956
 40
15.748031496063
100
AcDbArc
 50
270.0
 51
285.000000000173
  0
ARC
  5
BED
330
1F
100
AcDbEntity
  8
Conv Magenta 1.5
100
AcDbCircle
 10
810.6837074962633
 20
787.255940457837
 30
-200.8507310852956
 40
18.50393700787402
100
AcDbArc
 50
270.0
 51
285.000000000173
  0
ARC
  5
BEE
330
1F
100
AcDbEntity
  8
Conv Magenta 1.5
100
AcDbCircle
 10
810.6837074962633
 20
787.255940457837
 30
-200.8507310852956
 40
12.99212598425197
100
AcDbArc
 50
270.0
 51
285.000000000173
  0
LINE
  5
BEF
330
1F
100
AcDbEntity
  8
Conv Magenta 1.5
100
AcDbLine
 10
810.6837074962633
 20
774.2638144735884
 30
-200.8507310852956
 11
810.6837074962633
 21
768.7520034499631
 31
-200.8507310852956
  0
LINE
  5
BF0
330
1F
100
AcDbEntity
  8
Conv Magenta 1.5
100
AcDbLine
 10
807.5341011970506
 20
774.2638144735884
 30
-200.8507310852956
 11
807.5341011970506
 21
768.7520034499631
 31
-200.8507310852956
  0
LINE
  5
BF1
330
1F
100
AcDbEntity
  8
Conv Magenta 1.5
100
AcDbLine
 10
810.6837074962633
 20
774.2638144735884
 30
-200.8507310852956
 11
807.5341011970506
 21
774.2638144735884
 31
-200.8507310852956
  0
LINE
  5
BF2
330
1F
100
AcDbEntity
  8
Conv Magenta 1.5
100
AcDbLine
 10
807.5341011970506
 20
768.7520034499631
 30
-200.8507310852956
 11
810.6837074962633
 21
768.7520034499631
 31
-200.8507310852956
  0
LINE
  5
BF3
330
1F
100
AcDbEntity
  8
Conv Magenta 1.5
100
AcDbLine
 10
810.6837074962633
 20
771.5079089617776
 30
-200.8507310852956
 11
807.5341011970506
 21
771.5079089617776
 31
-200.8507310852956
  0
LINE
  5
BF4
330
1F
100
AcDbEntity
  8
Conv Magenta 1.5
100
AcDbLine
 10
814.0463171373596
 20
774.7065104312479
 30
-200.8507310852956
 11
815.4728788032782
 21
769.3825098139078
 31
-200.8507310852956
  0
LINE
  5
BF5
330
1F
100
AcDbEntity
  8
Conv Magenta 1.5
100
AcDbLine
 10
817.088603204411
 20
775.521688526058
 30
-200.8507310852956
 11
818.5151648703307
 21
770.197687908718
 31
-200.8507310852956
  0
LINE
  5
BF6
330
1F
100
AcDbEntity
  8
Conv Magenta 1.5
100
AcDbLine
 10
836.1028911234873
 20
780.6165516186284
 30
-200.8507310852956
 11
837.5294527894068
 21
775.2925510012884
 31
-200.8507310852956
  0
LINE
  5
BF7
330
1F
100
AcDbEntity
  8
Conv Magenta 1.5
100
AcDbLine
 10
837.5294527894059
 20
775.2925510012884
 30
-200.8507310852956
 11
815.4728788032782
 21
769.3825098139078
 31
-200.8507310852956
  0
LINE
  5
BF8
330
1F
100
AcDbEntity
  8
Conv Magenta 1.5
100
AcDbLine
 10
836.1028911234873
 20
780.6165516186284
 30
-200.8507310852956
 11
814.0463171373596
 21
774.7065104312479
 31
-200.8507310852956
  0
LINE
  5
BF9
330
1F
100
AcDbEntity
  8
Conv Magenta 1.5
100
AcDbLine
 10
814.7595979703185
 20
772.0445101225797
 30
-200.8507310852956
 11
817.8018840373708
 21
772.8596882173897
 31
-200.8507310852956
  0
ARC
  5
BFA
330
1F
100
AcDbEntity
  8
Conv Magenta 1.5
100
AcDbCircle
 10
838.5348170950349
 20
755.7598774657146
 30
-200.8507310852956
 40
15.748031496063
100
AcDbArc
 50
90.0
 51
105.0000000001224
  0
ARC
  5
BFB
330
1F
100
AcDbEntity
  8
Conv Magenta 1.5
100
AcDbCircle
 10
838.5348170950349
 20
755.7598774657146
 30
-200.8507310852956
 40
18.50393700787402
100
AcDbArc
 50
90.0
 51
105.0000000001224
  0
ARC
  5
BFC
330
1F
100
AcDbEntity
  8
Conv Magenta 1.5
100
AcDbCircle
 10
838.5348170950349
 20
755.7598774657146
 30
-200.8507310852956
 40
12.99212598425197
100
AcDbArc
 50
90.0
 51
105.0000000001224
  0
LINE
  5
BFD
330
1F
100
AcDbEntity
  8
Conv Magenta 1.5
100
AcDbLine
 10
838.5348170950349
 20
768.7520034499631
 30
-200.8507310852956
 11
838.5348170950349
 21
774.2638144735884
 31
-200.8507310852956
  0
LINE
  5
BFE
330
1F
100
AcDbEntity
  8
Conv Magenta 1.5
100
AcDbLine
 10
869.6844233942476
 20
768.7520034499631
 30
-200.8507310852956
 11
869.6844233942476
 21
774.2638144735884
 31
-200.8507310852956
  0
LINE
  5
BFF
330
1F
100
AcDbEntity
  8
Conv Magenta 1.5
100
AcDbLine
 10
838.5348170950349
 20
768.7520034499631
 30
-200.8507310852956
 11
869.6844233942476
 21
768.7520034499631
 31
-200.8507310852956
  0
LINE
  5
C00
330
1F
100
AcDbEntity
  8
Conv Magenta 1.5
100
AcDbLine
 10
869.6844233942476
 20
774.2638144735884
 30
-200.8507310852956
 11
838.5348170950349
 21
774.2638144735884
 31
-200.8507310852956
  0
LINE
  5
C01
330
1F
100
AcDbEntity
  8
Conv Magenta 1.5
100
AcDbLine
 10
838.5348170950349
 20
771.507908961774
 30
-200.8507310852956
 11
869.6844233942476
 21
771.507908961774
 31
-200.8507310852956
  0
LINE
  5
C02
330
1F
100
AcDbEntity
  8
Conv Magenta 1.5
100
AcDbLine
 10
835.1722074539386
 20
768.3093074923037
 30
-200.8507310852956
 11
833.7456457880191
 21
773.6333081096437
 31
-200.8507310852956
  0
LINE
  5
C03
330
1F
100
AcDbEntity
  8
Conv Magenta 1.5
100
AcDbLine
 10
832.1299213868863
 20
767.4941293974935
 30
-200.8507310852956
 11
830.7033597209667
 21
772.8181300148336
 31
-200.8507310852956
  0
LINE
  5
C04
330
1F
100
AcDbEntity
  8
Conv Magenta 1.5
100
AcDbLine
 10
813.1156334678109
 20
762.399266304923
 30
-200.8507310852956
 11
811.6890718018915
 21
767.7232669222632
 31
-200.8507310852956
  0
LINE
  5
C05
330
1F
100
AcDbEntity
  8
Conv Magenta 1.5
100
AcDbLine
 10
811.6890718018924
 20
767.7232669222632
 30
-200.8507310852956
 11
833.7456457880191
 21
773.6333081096437
 31
-200.8507310852956
  0
LINE
  5
C06
330
1F
100
AcDbEntity
  8
Conv Magenta 1.5
100
AcDbLine
 10
813.1156334678109
 20
762.399266304923
 30
-200.8507310852956
 11
835.1722074539386
 21
768.3093074923037
 31
-200.8507310852956
  0
LINE
  5
C07
330
1F
100
AcDbEntity
  8
Conv Magenta 1.5
100
AcDbLine
 10
834.4589266209798
 20
770.9713078009719
 30
-200.8507310852956
 11
831.4166405539275
 21
770.1561297061617
 31
-200.8507310852956
  0
LINE
  5
C08
330
1F
100
AcDbEntity
  8
Conv Magenta 1.5
100
AcDbLine
 10
50.41355725246581
 20
774.263814473552
 30
-200.8507310852954
 11
414.0489941898242
 21
774.263814473552
 31
-200.8507310852954
  0
LINE
  5
C09
330
1F
100
AcDbEntity
  8
Conv Magenta 1.5
100
AcDbLine
 10
414.0489941898242
 20
768.7520034499158
 30
-200.8507310852954
 11
50.41355725246581
 21
768.7520034499158
 31
-200.8507310852954
  0
LINE
  5
C0A
330
1F
100
AcDbEntity
  8
Conv Magenta 1.5
100
AcDbLine
 10
448.199316387004
 20
774.263814473552
 30
-200.8507310852954
 11
798.2900067088751
 21
774.263814473552
 31
-200.8507310852954
  0
LINE
  5
C0B
330
1F
100
AcDbEntity
  8
Conv Magenta 1.5
100
AcDbLine
 10
448.199316387004
 20
768.7520034499158
 30
-200.8507310852954
 11
810.290006708875
 21
768.7520034499158
 31
-200.8507310852954
  0
ARC
  5
C0C
330
1F
100
AcDbEntity
  8
Conv Magenta 1.5
100
AcDbCircle
 10
872.8340296934669
 20
1105.225847104664
 30
-200.8507310852954
 40
15.748031496063
100
AcDbArc
 50
0.0
 51
14.99999999934743
  0
ARC
  5
C0D
330
1F
100
AcDbEntity
  8
Conv Magenta 1.5
100
AcDbCircle
 10
872.8340296934669
 20
1105.225847104664
 30
-200.8507310852954
 40
18.50393700787402
100
AcDbArc
 50
0.0
 51
14.99999999934743
  0
ARC
  5
C0E
330
1F
100
AcDbEntity
  8
Conv Magenta 1.5
100
AcDbCircle
 10
872.8340296934669
 20
1105.225847104664
 30
-200.8507310852954
 40
12.99212598425197
100
AcDbArc
 50
0.0
 51
14.99999999934743
  0
LINE
  5
C0F
330
1F
100
AcDbEntity
  8
Conv Magenta 1.5
100
AcDbLine
 10
885.8261556777183
 20
1105.225847104664
 30
-200.8507310852954
 11
891.3379667013408
 21
1105.225847104664
 31
-200.8507310852954
  0
LINE
  5
C10
330
1F
100
AcDbEntity
  8
Conv Magenta 1.5
100
AcDbLine
 10
885.8261556777183
 20
1102.076240805452
 30
-200.8507310852954
 11
891.3379667013408
 21
1102.076240805452
 31
-200.8507310852954
  0
LINE
  5
C11
330
1F
100
AcDbEntity
  8
Conv Magenta 1.5
100
AcDbLine
 10
885.8261556777183
 20
1105.225847104664
 30
-200.8507310852954
 11
885.8261556777183
 21
1102.076240805452
 31
-200.8507310852954
  0
LINE
  5
C12
330
1F
100
AcDbEntity
  8
Conv Magenta 1.5
100
AcDbLine
 10
891.3379667013408
 20
1102.076240805452
 30
-200.8507310852954
 11
891.3379667013408
 21
1105.225847104664
 31
-200.8507310852954
  0
LINE
  5
C13
330
1F
100
AcDbEntity
  8
Conv Magenta 1.5
100
AcDbLine
 10
888.5820611895299
 20
1105.225847104664
 30
-200.8507310852954
 11
888.5820611895299
 21
1102.076240805452
 31
-200.8507310852954
  0
LINE
  5
C14
330
1F
100
AcDbEntity
  8
Conv Magenta 1.5
100
AcDbLine
 10
885.3834597200579
 20
1108.58845674576
 30
-200.8507310852954
 11
890.7074603373988
 21
1110.015018411681
 31
-200.8507310852954
  0
LINE
  5
C15
330
1F
100
AcDbEntity
  8
Conv Magenta 1.5
100
AcDbLine
 10
884.5682816252459
 20
1111.630742812815
 30
-200.8507310852954
 11
889.892282242587
 21
1113.057304478732
 31
-200.8507310852954
  0
LINE
  5
C16
330
1F
100
AcDbEntity
  8
Conv Magenta 1.5
100
AcDbLine
 10
879.4734185326763
 20
1130.64503073189
 30
-200.8507310852954
 11
884.7974191500174
 21
1132.071592397807
 31
-200.8507310852954
  0
LINE
  5
C17
330
1F
100
AcDbEntity
  8
Conv Magenta 1.5
100
AcDbLine
 10
884.7974191500183
 20
1132.071592397807
 30
-200.8507310852954
 11
890.7074603373988
 21
1110.015018411681
 31
-200.8507310852954
  0
LINE
  5
C18
330
1F
100
AcDbEntity
  8
Conv Magenta 1.5
100
AcDbLine
 10
879.4734185326763
 20
1130.64503073189
 30
-200.8507310852954
 11
885.383459720057
 21
1108.58845674576
 31
-200.8507310852954
  0
LINE
  5
C19
330
1F
100
AcDbEntity
  8
Conv Magenta 1.5
100
AcDbLine
 10
888.045460028727
 20
1109.301737578718
 30
-200.8507310852954
 11
887.2302819339159
 21
1112.344023645774
 31
-200.8507310852954
  0
ARC
  5
C1A
330
1F
100
AcDbEntity
  8
Conv Magenta 1.5
100
AcDbCircle
 10
904.3300926855931
 20
1133.076956703438
 30
-200.8507310852954
 40
15.748031496063
100
AcDbArc
 50
180.0
 51
194.9999999993474
  0
ARC
  5
C1B
330
1F
100
AcDbEntity
  8
Conv Magenta 1.5
100
AcDbCircle
 10
904.3300926855931
 20
1133.076956703438
 30
-200.8507310852954
 40
18.50393700787402
100
AcDbArc
 50
180.0
 51
194.9999999993474
  0
ARC
  5
C1C
330
1F
100
AcDbEntity
  8
Conv Magenta 1.5
100
AcDbCircle
 10
904.3300926855931
 20
1133.076956703438
 30
-200.8507310852954
 40
12.99212598425197
100
AcDbArc
 50
180.0
 51
194.9999999993474
  0
LINE
  5
C1D
330
1F
100
AcDbEntity
  8
Conv Magenta 1.5
100
AcDbLine
 10
891.3379667013408
 20
1133.076956703438
 30
-200.8507310852954
 11
885.8261556777183
 21
1133.076956703438
 31
-200.8507310852954
  0
LINE
  5
C1E
330
1F
100
AcDbEntity
  8
Conv Magenta 1.5
100
AcDbLine
 10
891.3379667013408
 20
1136.22656300265
 30
-200.8507310852954
 11
885.8261556777183
 21
1136.22656300265
 31
-200.8507310852954
  0
LINE
  5
C1F
330
1F
100
AcDbEntity
  8
Conv Magenta 1.5
100
AcDbLine
 10
891.3379667013408
 20
1133.076956703438
 30
-200.8507310852954
 11
891.3379667013408
 21
1136.22656300265
 31
-200.8507310852954
  0
LINE
  5
C20
330
1F
100
AcDbEntity
  8
Conv Magenta 1.5
100
AcDbLine
 10
885.8261556777183
 20
1136.22656300265
 30
-200.8507310852954
 11
885.8261556777183
 21
1133.076956703438
 31
-200.8507310852954
  0
LINE
  5
C21
330
1F
100
AcDbEntity
  8
Conv Magenta 1.5
100
AcDbLine
 10
888.5820611895299
 20
1133.076956703438
 30
-200.8507310852954
 11
888.5820611895299
 21
1136.22656300265
 31
-200.8507310852954
  0
LINE
  5
C22
330
1F
100
AcDbEntity
  8
Conv Magenta 1.5
100
AcDbLine
 10
891.7806626590012
 20
1129.714347062343
 30
-200.8507310852954
 11
886.4566620416612
 21
1128.287785396422
 31
-200.8507310852954
  0
LINE
  5
C23
330
1F
100
AcDbEntity
  8
Conv Magenta 1.5
100
AcDbLine
 10
892.595840753813
 20
1126.672060995288
 30
-200.8507310852954
 11
887.2718401364721
 21
1125.24549932937
 31
-200.8507310852954
  0
LINE
  5
C24
330
1F
100
AcDbEntity
  8
Conv Magenta 1.5
100
AcDbLine
 10
897.6907038463826
 20
1107.657773076213
 30
-200.8507310852954
 11
892.3667032290417
 21
1106.231211410295
 31
-200.8507310852954
  0
LINE
  5
C25
330
1F
100
AcDbEntity
  8
Conv Magenta 1.5
100
AcDbLine
 10
892.3667032290417
 20
1106.231211410295
 30
-200.8507310852954
 11
886.4566620416612
 21
1128.287785396422
 31
-200.8507310852954
  0
LINE
  5
C26
330
1F
100
AcDbEntity
  8
Conv Magenta 1.5
100
AcDbLine
 10
897.6907038463826
 20
1107.657773076213
 30
-200.8507310852954
 11
891.7806626590021
 21
1129.714347062343
 31
-200.8507310852954
  0
LINE
  5
C27
330
1F
100
AcDbEntity
  8
Conv Magenta 1.5
100
AcDbLine
 10
889.1186623503321
 20
1129.001066229384
 30
-200.8507310852954
 11
889.933840445143
 21
1125.958780162329
 31
-200.8507310852954
  0
LINE
  5
C28
330
1F
100
AcDbEntity
  8
Conv Magenta 1.5
100
AcDbLine
 10
885.8261556777298
 20
790.4055467570307
 30
-200.8507310852956
 11
885.82615567773
 21
1184.226563002654
 31
-200.8507310852956
  0
LINE
  5
C29
330
1F
100
AcDbEntity
  8
Conv Magenta 1.5
100
AcDbLine
 10
891.3379667013369
 20
790.4055467570307
 30
-200.8507310852956
 11
891.3379667013371
 21
1184.226563002654
 31
-200.8507310852956
  0
LINE
  5
C2A
330
1F
100
AcDbEntity
  8
Conv Magenta 1.5
100
AcDbLine
 10
885.82615567773
 20
1218.376885199852
 30
-200.8507310852956
 11
885.82615567773
 21
1419.829492127586
 31
-200.8507310852956
  0
LINE
  5
C2B
330
1F
100
AcDbEntity
  8
Conv Magenta 1.5
100
AcDbLine
 10
891.3379667013371
 20
1218.376885199852
 30
-200.8507310852956
 11
891.3379667013371
 21
1419.829492127586
 31
-200.8507310852956
  0
LWPOLYLINE
  5
C2C
330
1F
100
AcDbEntity
  8
Conv Magenta 1.5
100
AcDbPolyline
 90
        4
 70
     1
 43
0.0
 38
-200.8507310852954
 10
891.3379667013336
 20
1184.22656300265
 10
891.3379667013334
 20
1210.3684732985
 10
885.8261556777263
 20
1210.3684732985
 10
885.8261556777264
 20
1184.22656300265
  0
ARC
  5
C2F
330
1F
100
AcDbEntity
  8
Conv Green 1.5
100
AcDbCircle
 10
872.775007611229
 20
787.2992475443153
 30
-200.8507310852954
 40
15.748031496063
100
AcDbArc
 50
270.0
 51
0.0
  0
ARC
  5
C30
330
1F
100
AcDbEntity
  8
Conv Green 1.5
100
AcDbCircle
 10
872.775007611229
 20
787.2992475443153
 30
-200.8507310852954
 40
18.50393700787402
100
AcDbArc
 50
270.0
 51
0.0
  0
ARC
  5
C31
330
1F
100
AcDbEntity
  8
Conv Green 1.5
100
AcDbCircle
 10
872.775007611229
 20
787.2992475443153
 30
-200.8507310852954
 40
12.99212598425197
100
AcDbArc
 50
270.0
 51
0.0
  0
LINE
  5
C32
330
1F
100
AcDbEntity
  8
Conv Green 1.5
100
AcDbLine
 10
885.7671335954812
 20
787.2992475443153
 30
-200.8507310852954
 11
891.2789446191037
 21
787.2992475443153
 31
-200.8507310852954
  0
LINE
  5
C33
330
1F
100
AcDbEntity
  8
Conv Green 1.5
100
AcDbLine
 10
885.7671335954812
 20
790.4488538435308
 30
-200.8507310852954
 11
891.2789446191037
 21
790.4488538435308
 31
-200.8507310852954
  0
LINE
  5
C34
330
1F
100
AcDbEntity
  8
Conv Green 1.5
100
AcDbLine
 10
885.7671335954812
 20
790.4488538435308
 30
-200.8507310852954
 11
885.7671335954812
 21
787.2992475443153
 31
-200.8507310852954
  0
LINE
  5
C35
330
1F
100
AcDbEntity
  8
Conv Green 1.5
100
AcDbLine
 10
891.2789446191037
 20
790.4488538435308
 30
-200.8507310852954
 11
891.2789446191037
 21
787.2992475443153
 31
-200.8507310852954
  0
LINE
  5
C36
330
1F
100
AcDbEntity
  8
Conv Green 1.5
100
AcDbLine
 10
872.775007611229
 20
774.3071215600631
 30
-200.8507310852954
 11
872.775007611229
 21
768.7953105364414
 31
-200.8507310852954
  0
LINE
  5
C37
330
1F
100
AcDbEntity
  8
Conv Green 1.5
100
AcDbLine
 10
869.6254013120171
 20
774.3071215600631
 30
-200.8507310852954
 11
869.6254013120171
 21
768.7953105364414
 31
-200.8507310852954
  0
LINE
  5
C38
330
1F
100
AcDbEntity
  8
Conv Green 1.5
100
AcDbLine
 10
872.775007611229
 20
774.3071215600631
 30
-200.8507310852954
 11
869.6254013120171
 21
774.3071215600631
 31
-200.8507310852954
  0
LINE
  5
C39
330
1F
100
AcDbEntity
  8
Conv Green 1.5
100
AcDbLine
 10
869.6254013120171
 20
768.7953105364414
 30
-200.8507310852954
 11
872.775007611229
 21
768.7953105364414
 31
-200.8507310852954
  0
LINE
  5
C3A
330
1F
100
AcDbEntity
  8
Conv Green 1.5
100
AcDbLine
 10
888.5230391072919
 20
787.2992475443153
 30
-200.8507310852954
 11
888.5230391072919
 21
790.4488538435308
 31
-200.8507310852954
  0
LINE
  5
C3B
330
1F
100
AcDbEntity
  8
Conv Green 1.5
100
AcDbLine
 10
872.775007611229
 20
771.5512160482522
 30
-200.8507310852954
 11
869.6254013120171
 21
771.5512160482522
 31
-200.8507310852954
  0
ARC
  5
C3C
330
1F
100
AcDbEntity
  8
Conv Green 1.5
100
AcDbCircle
 10
47.20492887106707
 20
755.8031845521892
 30
-200.8507310852955
 40
15.748031496063
100
AcDbArc
 50
90.0
 51
180.0
  0
ARC
  5
C3D
330
1F
100
AcDbEntity
  8
Conv Green 1.5
100
AcDbCircle
 10
47.20492887106707
 20
755.8031845521892
 30
-200.8507310852955
 40
18.50393700787402
100
AcDbArc
 50
90.0
 51
180.0
  0
ARC
  5
C3E
330
1F
100
AcDbEntity
  8
Conv Green 1.5
100
AcDbCircle
 10
47.20492887106707
 20
755.8031845521892
 30
-200.8507310852955
 40
12.99212598425197
100
AcDbArc
 50
90.0
 51
180.0
  0
LINE
  5
C3F
330
1F
100
AcDbEntity
  8
Conv Green 1.5
100
AcDbLine
 10
34.21280288681487
 20
755.8031845521892
 30
-200.8507310852955
 11
28.70099186319317
 21
755.8031845521892
 31
-200.8507310852955
  0
LINE
  5
C40
330
1F
100
AcDbEntity
  8
Conv Green 1.5
100
AcDbLine
 10
34.21280288681487
 20
752.6535782529736
 30
-200.8507310852955
 11
28.70099186319317
 21
752.6535782529736
 31
-200.8507310852955
  0
LINE
  5
C41
330
1F
100
AcDbEntity
  8
Conv Green 1.5
100
AcDbLine
 10
34.21280288681487
 20
752.6535782529736
 30
-200.8507310852955
 11
34.21280288681487
 21
755.8031845521892
 31
-200.8507310852955
  0
LINE
  5
C42
330
1F
100
AcDbEntity
  8
Conv Green 1.5
100
AcDbLine
 10
28.70099186319317
 20
752.6535782529736
 30
-200.8507310852955
 11
28.70099186319317
 21
755.8031845521892
 31
-200.8507310852955
  0
LINE
  5
C43
330
1F
100
AcDbEntity
  8
Conv Green 1.5
100
AcDbLine
 10
47.20492887106707
 20
768.7953105364414
 30
-200.8507310852955
 11
47.20492887106707
 21
774.3071215600631
 31
-200.8507310852955
  0
LINE
  5
C44
330
1F
100
AcDbEntity
  8
Conv Green 1.5
100
AcDbLine
 10
50.35453517027986
 20
768.7953105364414
 30
-200.8507310852955
 11
50.35453517027986
 21
774.3071215600631
 31
-200.8507310852955
  0
LINE
  5
C45
330
1F
100
AcDbEntity
  8
Conv Green 1.5
100
AcDbLine
 10
47.20492887106707
 20
768.7953105364414
 30
-200.8507310852955
 11
50.35453517027986
 21
768.7953105364414
 31
-200.8507310852955
  0
LINE
  5
C46
330
1F
100
AcDbEntity
  8
Conv Green 1.5
100
AcDbLine
 10
50.35453517027986
 20
774.3071215600631
 30
-200.8507310852955
 11
47.20492887106707
 21
774.3071215600631
 31
-200.8507310852955
  0
LINE
  5
C47
330
1F
100
AcDbEntity
  8
Conv Green 1.5
100
AcDbLine
 10
31.45689737500402
 20
755.8031845521892
 30
-200.8507310852955
 11
31.45689737500402
 21
752.6535782529736
 31
-200.8507310852955
  0
LINE
  5
C48
330
1F
100
AcDbEntity
  8
Conv Green 1.5
100
AcDbLine
 10
47.20492887106707
 20
771.5512160482522
 30
-200.8507310852955
 11
50.35453517027986
 21
771.5512160482522
 31
-200.8507310852955
  0
LINE
  5
C49
330
1F
100
AcDbEntity
  8
Conv Green 1.5
100
AcDbLine
 10
885.791710007872
 20
1210.3684732985
 30
-200.8507310852954
 11
885.7671335954647
 21
1077.456143033638
 31
-200.8507310852954
  0
LINE
  5
C4A
330
1F
100
AcDbEntity
  8
Conv Green 1.5
100
AcDbLine
 10
891.2789446191011
 20
1077.456143033638
 30
-200.8507310852954
 11
891.2789446191011
 21
1210.3684732985
 31
-200.8507310852954
  0
LINE
  5
C4B
330
1F
100
AcDbEntity
  8
Conv Green 1.5
100
AcDbLine
 10
885.7671335954647
 20
790.4488538435599
 30
-200.8507310852954
 11
885.7671335954647
 21
1077.456143033638
 31
-200.8507310852954
  0
LINE
  5
C4C
330
1F
100
AcDbEntity
  8
Conv Green 1.5
100
AcDbLine
 10
891.2789446191011
 20
790.4488538435599
 30
-200.8507310852954
 11
891.2789446191011
 21
1077.456143033638
 31
-200.8507310852954
  0
ARC
  5
C4D
330
1F
100
AcDbEntity
  8
Conv Green 1.5
100
AcDbCircle
 10
771.7038496184279
 20
755.8031845521601
 30
-200.8507310852955
 40
15.748031496063
100
AcDbArc
 50
90.0
 51
105.000000000173
  0
ARC
  5
C4E
330
1F
100
AcDbEntity
  8
Conv Green 1.5
100
AcDbCircle
 10
771.7038496184279
 20
755.8031845521601
 30
-200.8507310852955
 40
18.50393700787402
100
AcDbArc
 50
90.0
 51
105.000000000173
  0
ARC
  5
C4F
330
1F
100
AcDbEntity
  8
Conv Green 1.5
100
AcDbCircle
 10
771.7038496184279
 20
755.8031845521601
 30
-200.8507310852955
 40
12.99212598425197
100
AcDbArc
 50
90.0
 51
105.000000000173
  0
LINE
  5
C50
330
1F
100
AcDbEntity
  8
Conv Green 1.5
100
AcDbLine
 10
771.7038496184279
 20
768.7953105364123
 30
-200.8507310852955
 11
771.7038496184279
 21
774.307121560034
 31
-200.8507310852955
  0
LINE
  5
C51
330
1F
100
AcDbEntity
  8
Conv Green 1.5
100
AcDbLine
 10
774.8534559176407
 20
768.7953105364123
 30
-200.8507310852955
 11
774.8534559176407
 21
774.307121560034
 31
-200.8507310852955
  0
LINE
  5
C52
330
1F
100
AcDbEntity
  8
Conv Green 1.5
100
AcDbLine
 10
771.7038496184279
 20
768.7953105364123
 30
-200.8507310852955
 11
774.8534559176407
 21
768.7953105364123
 31
-200.8507310852955
  0
LINE
  5
C53
330
1F
100
AcDbEntity
  8
Conv Green 1.5
100
AcDbLine
 10
774.8534559176407
 20
774.307121560034
 30
-200.8507310852955
 11
771.7038496184279
 21
774.307121560034
 31
-200.8507310852955
  0
LINE
  5
C54
330
1F
100
AcDbEntity
  8
Conv Green 1.5
100
AcDbLine
 10
771.7038496184279
 20
771.5512160482232
 30
-200.8507310852955
 11
774.8534559176407
 21
771.5512160482232
 31
-200.8507310852955
  0
LINE
  5
C55
330
1F
100
AcDbEntity
  8
Conv Green 1.5
100
AcDbLine
 10
768.3412399773317
 20
768.3526145787529
 30
-200.8507310852955
 11
766.9146783114122
 21
773.6766151960965
 31
-200.8507310852955
  0
LINE
  5
C56
330
1F
100
AcDbEntity
  8
Conv Green 1.5
100
AcDbLine
 10
765.2989539102793
 20
767.5374364839427
 30
-200.8507310852955
 11
763.8723922443598
 21
772.8614371012792
 31
-200.8507310852955
  0
LINE
  5
C57
330
1F
100
AcDbEntity
  8
Conv Green 1.5
100
AcDbLine
 10
746.284665991204
 20
762.4425733913723
 30
-200.8507310852955
 11
744.8581043252845
 21
767.766574008716
 31
-200.8507310852955
  0
LINE
  5
C58
330
1F
100
AcDbEntity
  8
Conv Green 1.5
100
AcDbLine
 10
744.8581043252854
 20
767.766574008716
 30
-200.8507310852955
 11
766.9146783114122
 21
773.6766151960965
 31
-200.8507310852955
  0
LINE
  5
C59
330
1F
100
AcDbEntity
  8
Conv Green 1.5
100
AcDbLine
 10
746.284665991204
 20
762.4425733913723
 30
-200.8507310852955
 11
768.3412399773317
 21
768.3526145787529
 31
-200.8507310852955
  0
LINE
  5
C5A
330
1F
100
AcDbEntity
  8
Conv Green 1.5
100
AcDbLine
 10
767.6279591443728
 20
771.0146148874247
 30
-200.8507310852955
 11
764.5856730773204
 21
770.1994367926146
 31
-200.8507310852955
  0
ARC
  5
C5B
330
1F
100
AcDbEntity
  8
Conv Green 1.5
100
AcDbCircle
 10
743.8527400196565
 20
787.2992475442935
 30
-200.8507310852955
 40
15.748031496063
100
AcDbArc
 50
270.0
 51
285.000000000173
  0
ARC
  5
C5C
330
1F
100
AcDbEntity
  8
Conv Green 1.5
100
AcDbCircle
 10
743.8527400196565
 20
787.2992475442935
 30
-200.8507310852955
 40
18.50393700787402
100
AcDbArc
 50
270.0
 51
285.000000000173
  0
ARC
  5
C5D
330
1F
100
AcDbEntity
  8
Conv Green 1.5
100
AcDbCircle
 10
743.8527400196565
 20
787.2992475442935
 30
-200.8507310852955
 40
12.99212598425197
100
AcDbArc
 50
270.0
 51
285.000000000173
  0
LINE
  5
C5E
330
1F
100
AcDbEntity
  8
Conv Green 1.5
100
AcDbLine
 10
743.8527400196565
 20
774.3071215600413
 30
-200.8507310852955
 11
743.8527400196565
 21
768.7953105364195
 31
-200.8507310852955
  0
LINE
  5
C5F
330
1F
100
AcDbEntity
  8
Conv Green 1.5
100
AcDbLine
 10
740.7031337204436
 20
774.3071215600413
 30
-200.8507310852955
 11
740.7031337204436
 21
768.7953105364195
 31
-200.8507310852955
  0
LINE
  5
C60
330
1F
100
AcDbEntity
  8
Conv Green 1.5
100
AcDbLine
 10
743.8527400196565
 20
774.3071215600413
 30
-200.8507310852955
 11
740.7031337204436
 21
774.3071215600413
 31
-200.8507310852955
  0
LINE
  5
C61
330
1F
100
AcDbEntity
  8
Conv Green 1.5
100
AcDbLine
 10
740.7031337204436
 20
768.7953105364195
 30
-200.8507310852955
 11
743.8527400196565
 21
768.7953105364195
 31
-200.8507310852955
  0
LINE
  5
C62
330
1F
100
AcDbEntity
  8
Conv Green 1.5
100
AcDbLine
 10
743.8527400196565
 20
771.5512160482305
 30
-200.8507310852955
 11
740.7031337204436
 21
771.5512160482305
 31
-200.8507310852955
  0
LINE
  5
C63
330
1F
100
AcDbEntity
  8
Conv Green 1.5
100
AcDbLine
 10
747.2153496607518
 20
774.7498175177008
 30
-200.8507310852955
 11
748.6419113266713
 21
769.425816900357
 31
-200.8507310852955
  0
LINE
  5
C64
330
1F
100
AcDbEntity
  8
Conv Green 1.5
100
AcDbLine
 10
750.2576357278042
 20
775.5649956125108
 30
-200.8507310852955
 11
751.6841973937236
 21
770.2409949951744
 31
-200.8507310852955
  0
LINE
  5
C65
330
1F
100
AcDbEntity
  8
Conv Green 1.5
100
AcDbLine
 10
769.2719236468803
 20
780.6598587050813
 30
-200.8507310852955
 11
770.6984853127999
 21
775.3358580877375
 31
-200.8507310852955
  0
LINE
  5
C66
330
1F
100
AcDbEntity
  8
Conv Green 1.5
100
AcDbLine
 10
770.6984853127989
 20
775.3358580877375
 30
-200.8507310852955
 11
748.6419113266713
 21
769.425816900357
 31
-200.8507310852955
  0
LINE
  5
C67
330
1F
100
AcDbEntity
  8
Conv Green 1.5
100
AcDbLine
 10
769.2719236468803
 20
780.6598587050813
 30
-200.8507310852955
 11
747.2153496607518
 21
774.7498175177008
 31
-200.8507310852955
  0
LINE
  5
C68
330
1F
100
AcDbEntity
  8
Conv Green 1.5
100
AcDbLine
 10
747.9286304937115
 20
772.0878172090289
 30
-200.8507310852955
 11
750.9709165607639
 21
772.902995303839
 31
-200.8507310852955
  0
ARC
  5
C69
330
1F
100
AcDbEntity
  8
Conv Green 1.5
100
AcDbCircle
 10
289.1526685160818
 20
755.8031845521601
 30
-200.8507310852955
 40
15.748031496063
100
AcDbArc
 50
90.0
 51
105.0000000001224
  0
ARC
  5
C6A
330
1F
100
AcDbEntity
  8
Conv Green 1.5
100
AcDbCircle
 10
289.1526685160818
 20
755.8031845521601
 30
-200.8507310852955
 40
18.50393700787402
100
AcDbArc
 50
90.0
 51
105.0000000001224
  0
ARC
  5
C6B
330
1F
100
AcDbEntity
  8
Conv Green 1.5
100
AcDbCircle
 10
289.1526685160818
 20
755.8031845521601
 30
-200.8507310852955
 40
12.99212598425197
100
AcDbArc
 50
90.0
 51
105.0000000001224
  0
LINE
  5
C6C
330
1F
100
AcDbEntity
  8
Conv Green 1.5
100
AcDbLine
 10
289.1526685160818
 20
768.7953105364123
 30
-200.8507310852955
 11
289.1526685160818
 21
774.307121560034
 31
-200.8507310852955
  0
LINE
  5
C6D
330
1F
100
AcDbEntity
  8
Conv Green 1.5
100
AcDbLine
 10
292.3022748152946
 20
768.7953105364123
 30
-200.8507310852955
 11
292.3022748152946
 21
774.307121560034
 31
-200.8507310852955
  0
LINE
  5
C6E
330
1F
100
AcDbEntity
  8
Conv Green 1.5
100
AcDbLine
 10
289.1526685160818
 20
768.7953105364123
 30
-200.8507310852955
 11
292.3022748152946
 21
768.7953105364123
 31
-200.8507310852955
  0
LINE
  5
C6F
330
1F
100
AcDbEntity
  8
Conv Green 1.5
100
AcDbLine
 10
292.3022748152946
 20
774.307121560034
 30
-200.8507310852955
 11
289.1526685160818
 21
774.307121560034
 31
-200.8507310852955
  0
LINE
  5
C70
330
1F
100
AcDbEntity
  8
Conv Green 1.5
100
AcDbLine
 10
289.1526685160818
 20
771.5512160482232
 30
-200.8507310852955
 11
292.3022748152946
 21
771.5512160482232
 31
-200.8507310852955
  0
LINE
  5
C71
330
1F
100
AcDbEntity
  8
Conv Green 1.5
100
AcDbLine
 10
285.7900588749856
 20
768.3526145787529
 30
-200.8507310852955
 11
284.3634972090661
 21
773.6766151960965
 31
-200.8507310852955
  0
LINE
  5
C72
330
1F
100
AcDbEntity
  8
Conv Green 1.5
100
AcDbLine
 10
282.7477728079332
 20
767.5374364839427
 30
-200.8507310852955
 11
281.3212111420137
 21
772.8614371012792
 31
-200.8507310852955
  0
LINE
  5
C73
330
1F
100
AcDbEntity
  8
Conv Green 1.5
100
AcDbLine
 10
263.7334848888579
 20
762.4425733913723
 30
-200.8507310852955
 11
262.3069232229384
 21
767.766574008716
 31
-200.8507310852955
  0
LINE
  5
C74
330
1F
100
AcDbEntity
  8
Conv Green 1.5
100
AcDbLine
 10
262.3069232229393
 20
767.766574008716
 30
-200.8507310852955
 11
284.3634972090661
 21
773.6766151960965
 31
-200.8507310852955
  0
LINE
  5
C75
330
1F
100
AcDbEntity
  8
Conv Green 1.5
100
AcDbLine
 10
263.7334848888579
 20
762.4425733913723
 30
-200.8507310852955
 11
285.7900588749856
 21
768.3526145787529
 31
-200.8507310852955
  0
LINE
  5
C76
330
1F
100
AcDbEntity
  8
Conv Green 1.5
100
AcDbLine
 10
285.0767780420267
 20
771.0146148874247
 30
-200.8507310852955
 11
282.0344919749743
 21
770.1994367926146
 31
-200.8507310852955
  0
ARC
  5
C77
330
1F
100
AcDbEntity
  8
Conv Green 1.5
100
AcDbCircle
 10
261.3015589173103
 20
787.2992475442935
 30
-200.8507310852955
 40
15.748031496063
100
AcDbArc
 50
270.0
 51
285.0000000001224
  0
ARC
  5
C78
330
1F
100
AcDbEntity
  8
Conv Green 1.5
100
AcDbCircle
 10
261.3015589173103
 20
787.2992475442935
 30
-200.8507310852955
 40
18.50393700787402
100
AcDbArc
 50
270.0
 51
285.0000000001224
  0
ARC
  5
C79
330
1F
100
AcDbEntity
  8
Conv Green 1.5
100
AcDbCircle
 10
261.3015589173103
 20
787.2992475442935
 30
-200.8507310852955
 40
12.99212598425197
100
AcDbArc
 50
270.0
 51
285.0000000001224
  0
LINE
  5
C7A
330
1F
100
AcDbEntity
  8
Conv Green 1.5
100
AcDbLine
 10
261.3015589173103
 20
774.3071215600413
 30
-200.8507310852955
 11
261.3015589173103
 21
768.7953105364195
 31
-200.8507310852955
  0
LINE
  5
C7B
330
1F
100
AcDbEntity
  8
Conv Green 1.5
100
AcDbLine
 10
258.1519526180975
 20
774.3071215600413
 30
-200.8507310852955
 11
258.1519526180975
 21
768.7953105364195
 31
-200.8507310852955
  0
LINE
  5
C7C
330
1F
100
AcDbEntity
  8
Conv Green 1.5
100
AcDbLine
 10
261.3015589173103
 20
774.3071215600413
 30
-200.8507310852955
 11
258.1519526180975
 21
774.3071215600413
 31
-200.8507310852955
  0
LINE
  5
C7D
330
1F
100
AcDbEntity
  8
Conv Green 1.5
100
AcDbLine
 10
258.1519526180975
 20
768.7953105364195
 30
-200.8507310852955
 11
261.3015589173103
 21
768.7953105364195
 31
-200.8507310852955
  0
LINE
  5
C7E
330
1F
100
AcDbEntity
  8
Conv Green 1.5
100
AcDbLine
 10
261.3015589173103
 20
771.5512160482305
 30
-200.8507310852955
 11
258.1519526180975
 21
771.5512160482305
 31
-200.8507310852955
  0
LINE
  5
C7F
330
1F
100
AcDbEntity
  8
Conv Green 1.5
100
AcDbLine
 10
264.6641685584057
 20
774.7498175177008
 30
-200.8507310852955
 11
266.0907302243252
 21
769.425816900357
 31
-200.8507310852955
  0
LINE
  5
C80
330
1F
100
AcDbEntity
  8
Conv Green 1.5
100
AcDbLine
 10
267.706454625458
 20
775.5649956125108
 30
-200.8507310852955
 11
269.1330162913776
 21
770.2409949951744
 31
-200.8507310852955
  0
LINE
  5
C81
330
1F
100
AcDbEntity
  8
Conv Green 1.5
100
AcDbLine
 10
286.7207425445343
 20
780.6598587050813
 30
-200.8507310852955
 11
288.1473042104537
 21
775.3358580877375
 31
-200.8507310852955
  0
LINE
  5
C82
330
1F
100
AcDbEntity
  8
Conv Green 1.5
100
AcDbLine
 10
288.1473042104529
 20
775.3358580877375
 30
-200.8507310852955
 11
266.0907302243252
 21
769.425816900357
 31
-200.8507310852955
  0
LINE
  5
C83
330
1F
100
AcDbEntity
  8
Conv Green 1.5
100
AcDbLine
 10
286.7207425445343
 20
780.6598587050813
 30
-200.8507310852955
 11
264.6641685584057
 21
774.7498175177008
 31
-200.8507310852955
  0
LINE
  5
C84
330
1F
100
AcDbEntity
  8
Conv Green 1.5
100
AcDbLine
 10
265.3774493913654
 20
772.0878172090289
 30
-200.8507310852955
 11
268.4197354584178
 21
772.902995303839
 31
-200.8507310852955
  0
LINE
  5
C85
330
1F
100
AcDbEntity
  8
Conv Green 1.5
100
AcDbLine
 10
774.8534559176325
 20
768.7953105364632
 30
-200.8507310852955
 11
869.6254013120045
 21
768.7953105364632
 31
-200.8507310852955
  0
LINE
  5
C86
330
1F
100
AcDbEntity
  8
Conv Green 1.5
100
AcDbLine
 10
774.8534559176325
 20
774.3071215600995
 30
-200.8507310852955
 11
869.6254013120045
 21
774.3071215600995
 31
-200.8507310852955
  0
LINE
  5
C87
330
1F
100
AcDbEntity
  8
Conv Green 1.5
100
AcDbLine
 10
740.7031337204528
 20
768.7953105364632
 30
-200.8507310852955
 11
292.3022748152864
 21
768.7953105364632
 31
-200.8507310852955
  0
LINE
  5
C88
330
1F
100
AcDbEntity
  8
Conv Green 1.5
100
AcDbLine
 10
740.7031337204528
 20
774.3071215600413
 30
-200.8507310852955
 11
292.3022748152864
 21
774.3071215600995
 31
-200.8507310852955
  0
LINE
  5
C89
330
1F
100
AcDbEntity
  8
Conv Green 1.5
100
AcDbLine
 10
50.35453517029168
 20
768.7953105364632
 30
-200.8507310852955
 11
258.1519526180775
 21
768.7953105364632
 31
-200.8507310852955
  0
LINE
  5
C8A
330
1F
100
AcDbEntity
  8
Conv Green 1.5
100
AcDbLine
 10
258.1519526180775
 20
774.3071215600413
 30
-200.8507310852955
 11
50.35453517029168
 21
774.3071215600995
 31
-200.8507310852955
  0
ARC
  5
C8B
330
1F
100
AcDbEntity
  8
Conv Green 1.5
100
AcDbCircle
 10
47.2049288710715
 20
-24.95228225475319
 30
-200.8507310852955
 40
15.748031496063
100
AcDbArc
 50
180.0
 51
194.9999999993474
  0
ARC
  5
C8C
330
1F
100
AcDbEntity
  8
Conv Green 1.5
100
AcDbCircle
 10
47.2049288710715
 20
-24.95228225475319
 30
-200.8507310852955
 40
18.50393700787402
100
AcDbArc
 50
180.0
 51
194.9999999993474
  0
ARC
  5
C8D
330
1F
100
AcDbEntity
  8
Conv Green 1.5
100
AcDbCircle
 10
47.2049288710715
 20
-24.95228225475319
 30
-200.8507310852955
 40
12.99212598425197
100
AcDbArc
 50
180.0
 51
194.9999999993474
  0
LINE
  5
C8E
330
1F
100
AcDbEntity
  8
Conv Green 1.5
100
AcDbLine
 10
34.21280288681931
 20
-24.95228225475319
 30
-200.8507310852955
 11
28.7009918631976
 21
-24.95228225475319
 31
-200.8507310852955
  0
LINE
  5
C8F
330
1F
100
AcDbEntity
  8
Conv Green 1.5
100
AcDbLine
 10
34.21280288681931
 20
-21.80267595553766
 30
-200.8507310852955
 11
28.7009918631976
 21
-21.80267595553766
 31
-200.8507310852955
  0
LINE
  5
C90
330
1F
100
AcDbEntity
  8
Conv Green 1.5
100
AcDbLine
 10
34.21280288681931
 20
-24.95228225475319
 30
-200.8507310852955
 11
34.21280288681931
 21
-21.80267595553766
 31
-200.8507310852955
  0
LINE
  5
C91
330
1F
100
AcDbEntity
  8
Conv Green 1.5
100
AcDbLine
 10
28.7009918631976
 20
-21.80267595553766
 30
-200.8507310852955
 11
28.7009918631976
 21
-24.95228225475319
 31
-200.8507310852955
  0
LINE
  5
C92
330
1F
100
AcDbEntity
  8
Conv Green 1.5
100
AcDbLine
 10
31.45689737500845
 20
-24.95228225475319
 30
-200.8507310852955
 11
31.45689737500845
 21
-21.80267595553766
 31
-200.8507310852955
  0
LINE
  5
C93
330
1F
100
AcDbEntity
  8
Conv Green 1.5
100
AcDbLine
 10
34.65549884447967
 20
-28.31489189584852
 30
-200.8507310852955
 11
29.33149822713961
 21
-29.74145356176621
 31
-200.8507310852955
  0
LINE
  5
C94
330
1F
100
AcDbEntity
  8
Conv Green 1.5
100
AcDbLine
 10
35.4706769392925
 20
-31.35717796289998
 30
-200.8507310852955
 11
30.14667632195062
 21
-32.78373962881767
 31
-200.8507310852955
  0
LINE
  5
C95
330
1F
100
AcDbEntity
  8
Conv Green 1.5
100
AcDbLine
 10
40.56554003186113
 20
-50.37146588197527
 30
-200.8507310852955
 11
35.24153941452107
 21
-51.79802754789296
 31
-200.8507310852955
  0
LINE
  5
C96
330
1F
100
AcDbEntity
  8
Conv Green 1.5
100
AcDbLine
 10
35.24153941452016
 20
-51.79802754789296
 30
-200.8507310852955
 11
29.33149822713961
 21
-29.74145356176621
 31
-200.8507310852955
  0
LINE
  5
C97
330
1F
100
AcDbEntity
  8
Conv Green 1.5
100
AcDbLine
 10
40.56554003186113
 20
-50.37146588197527
 30
-200.8507310852955
 11
34.65549884448058
 21
-28.31489189584852
 31
-200.8507310852955
  0
LINE
  5
C98
330
1F
100
AcDbEntity
  8
Conv Green 1.5
100
AcDbLine
 10
31.99349853581054
 20
-29.02817272880373
 30
-200.8507310852955
 11
32.80867663062247
 21
-32.07045879585519
 31
-200.8507310852955
  0
ARC
  5
C99
330
1F
100
AcDbEntity
  8
Conv Green 1.5
100
AcDbCircle
 10
15.7088658789454
 20
-52.80339185351647
 30
-200.8507310852955
 40
15.748031496063
100
AcDbArc
 50
0.0
 51
14.99999999934744
  0
ARC
  5
C9A
330
1F
100
AcDbEntity
  8
Conv Green 1.5
100
AcDbCircle
 10
15.7088658789454
 20
-52.80339185351647
 30
-200.8507310852955
 40
18.50393700787402
100
AcDbArc
 50
0.0
 51
14.99999999934744
  0
ARC
  5
C9B
330
1F
100
AcDbEntity
  8
Conv Green 1.5
100
AcDbCircle
 10
15.7088658789454
 20
-52.80339185351647
 30
-200.8507310852955
 40
12.99212598425197
100
AcDbArc
 50
0.0
 51
14.99999999934744
  0
LINE
  5
C9C
330
1F
100
AcDbEntity
  8
Conv Green 1.5
100
AcDbLine
 10
28.7009918631976
 20
-52.80339185351647
 30
-200.8507310852955
 11
34.21280288681931
 21
-52.80339185351647
 31
-200.8507310852955
  0
LINE
  5
C9D
330
1F
100
AcDbEntity
  8
Conv Green 1.5
100
AcDbLine
 10
28.7009918631976
 20
-55.95299815273199
 30
-200.8507310852955
 11
34.21280288681931
 21
-55.95299815273199
 31
-200.8507310852955
  0
LINE
  5
C9E
330
1F
100
AcDbEntity
  8
Conv Green 1.5
100
AcDbLine
 10
28.7009918631976
 20
-52.80339185351647
 30
-200.8507310852955
 11
28.7009918631976
 21
-55.95299815273199
 31
-200.8507310852955
  0
LINE
  5
C9F
330
1F
100
AcDbEntity
  8
Conv Green 1.5
100
AcDbLine
 10
34.21280288681931
 20
-55.95299815273199
 30
-200.8507310852955
 11
34.21280288681931
 21
-52.80339185351647
 31
-200.8507310852955
  0
LINE
  5
CA0
330
1F
100
AcDbEntity
  8
Conv Green 1.5
100
AcDbLine
 10
31.45689737500845
 20
-52.80339185351647
 30
-200.8507310852955
 11
31.45689737500845
 21
-55.95299815273199
 31
-200.8507310852955
  0
LINE
  5
CA1
330
1F
100
AcDbEntity
  8
Conv Green 1.5
100
AcDbLine
 10
28.25829590553633
 20
-49.44078221242114
 30
-200.8507310852955
 11
33.5822965228773
 21
-48.01422054650345
 31
-200.8507310852955
  0
LINE
  5
CA2
330
1F
100
AcDbEntity
  8
Conv Green 1.5
100
AcDbLine
 10
27.4431178107244
 20
-46.39849614536967
 30
-200.8507310852955
 11
32.76711842806629
 21
-44.97193447945199
 31
-200.8507310852955
  0
LINE
  5
CA3
330
1F
100
AcDbEntity
  8
Conv Green 1.5
100
AcDbLine
 10
22.34825471815577
 20
-27.38420822629439
 30
-200.8507310852955
 11
27.67225533549583
 21
-25.9576465603767
 31
-200.8507310852955
  0
LINE
  5
CA4
330
1F
100
AcDbEntity
  8
Conv Green 1.5
100
AcDbLine
 10
27.67225533549674
 20
-25.9576465603767
 30
-200.8507310852955
 11
33.5822965228773
 21
-48.01422054650345
 31
-200.8507310852955
  0
LINE
  5
CA5
330
1F
100
AcDbEntity
  8
Conv Green 1.5
100
AcDbLine
 10
22.34825471815577
 20
-27.38420822629439
 30
-200.8507310852955
 11
28.25829590553633
 21
-49.44078221242114
 31
-200.8507310852955
  0
LINE
  5
CA6
330
1F
100
AcDbEntity
  8
Conv Green 1.5
100
AcDbLine
 10
30.92029621420636
 20
-48.72750137946593
 30
-200.8507310852955
 11
30.10511811939443
 21
-45.68521531241446
 31
-200.8507310852955
  0
LINE
  5
CA7
330
1F
100
AcDbEntity
  8
Conv Green 1.5
100
AcDbLine
 10
34.21280288681931
 20
-642.3538570578838
 30
-200.8507310852955
 11
28.7009918631976
 21
-642.3538570578838
 31
-200.8507310852955
  0
LINE
  5
CA8
330
1F
100
AcDbEntity
  8
Conv Green 1.5
100
AcDbLine
 10
34.21280288681931
 20
-642.3538570578838
 30
-200.8507310852955
 11
34.21280288681931
 21
-612.3538570578838
 31
-200.8507310852955
  0
LINE
  5
CA9
330
1F
100
AcDbEntity
  8
Conv Green 1.5
100
AcDbLine
 10
28.7009918631976
 20
-612.3538570578838
 30
-200.8507310852955
 11
28.7009918631976
 21
-642.3538570578838
 31
-200.8507310852955
  0
LINE
  5
CAA
330
1F
100
AcDbEntity
  8
Conv Green 1.5
100
AcDbLine
 10
28.70099186319499
 20
568.7485051468303
 30
-200.8507310852955
 11
28.70099186319499
 21
752.6535782530028
 31
-200.8507310852955
  0
LINE
  5
CAB
330
1F
100
AcDbEntity
  8
Conv Green 1.5
100
AcDbLine
 10
34.21280288680214
 20
752.6535782530028
 30
-200.8507310852955
 11
34.21280288680214
 21
568.7485051468303
 31
-200.8507310852955
  0
LINE
  5
CAC
330
1F
100
AcDbEntity
  8
Conv Green 1.5
100
AcDbLine
 10
34.21280288680203
 20
-21.80267595557404
 30
-200.8507310852955
 11
34.21280288680214
 21
568.7485051468303
 31
-200.8507310852955
  0
LINE
  5
CAD
330
1F
100
AcDbEntity
  8
Conv Green 1.5
100
AcDbLine
 10
28.70099186319499
 20
568.7485051468303
 30
-200.8507310852955
 11
28.70099186319487
 21
-21.80267595557404
 31
-200.8507310852955
  0
LINE
  5
CAE
330
1F
100
AcDbEntity
  8
Conv Green 1.5
100
AcDbLine
 10
28.70099186319487
 20
-55.95299815275382
 30
-200.8507310852955
 11
28.70099186319487
 21
-612.3538570579202
 31
-200.8507310852955
  0
LINE
  5
CAF
330
1F
100
AcDbEntity
  8
Conv Green 1.5
100
AcDbLine
 10
34.21280288680203
 20
-612.3538570579202
 30
-200.8507310852955
 11
34.21280288680203
 21
-55.95299815275382
 31
-200.8507310852955
  0
MULTILEADER
  5
CB0
330
1F
100
AcDbEntity
  8
Dims Green 1.5
 62
   116
420
  1271604
160
              1032
310
080400001F0000000C00000016000000346713C20C00000033000000000000000C00000013000000993A00000C00000016000000FFFFFFC20C00000014000000010000006C0000000700000004000000E06714F8D99730C0AFF0B510D1EA81C01CA16530391B69C0DE6714F8D99730C03686B411336B7DC01CA16530391B69
310
C0884E3B0C05BE29403686B411336B7DC01CA16530391B69C0844E3B0C05BE2940AFF0B510D1EA81C01CA16530391B69C00C00000016000000346713C20C00000014000000010000000C00000016000000346713C2C400000026000000809F51E0675F12C03E041EDFB6D181C01CA16530391B69C000000000000000000000
310
000000000000000000000000F03F075C143326A6913C000000000000F03F0000000000000000440072006F007000200044006F0077006E00000009000000010000000000000000002040000000000000F03F0000000000000000000000000000F03F0000000000000000000000000000000000000000000000000000000001
310
0000002200000041007200690061006C00000000000000000000000C00000016000000346713C2D800000026000000EADA81BAF67A21403E041EDFB6D181C01CA16530391B69C000000000000000000000000000000000000000000000F03F075C143326A6913C000000000000F03F000000000000000050006F0077006500
310
72006500640020005400720061006E0073006900740069006F006E000000000012000000010000000000000000002040000000000000F03F0000000000000000000000000000F03F00000000000000000000000000000000000000000000000000000000010000002200000041007200690061006C00000000000000000000
310
000C00000033000000000000000C00000010000000040000000C00000016000000346713C20C00000012000000FF7F00000C00000013000000010000000C0000001400000001000000540000000700000003000000931F967E35283940A1EA3E8628C483C01CA16530391B69C0204AF339F7743F408F5802B3D41284C01CA1
310
6530391B69C041EBAE34E44E3640AE6CEAA1C1D883C01CA16530391B69C00C00000013000000891300003C00000006000000020000006A85A2D98CBB3740A7AB141475CE83C01CA16530391B69C0C0154CC72C0E21C04F38978BE5B082C01CA16530391B69C00C00000013000000112700003C0000000600000002000000C0
310
154CC72C0E21C04F38978BE5B082C01CA16530391B69C0BF154CC72C0E21C04F38978BE5F881C01CA16530391B69C00C00000016000000346713C20C00000012000000FF7F00000C00000017000000000000000C000000130000009A3A00000C00000016000000346713C20C00000012000000FF7F00000C00000017000000
310
FFFFFFFF0C0000003300000000000000
100
AcDbMLeader
270
     2
300
CONTEXT_DATA{
 40
64.0
 10
-8.527685382878983
 20
-575.1120826543864
 30
-200.8507310852955
 41
8.0
140
11.52
145
5.759999999999999
174
     1
175
     1
176
     0
177
     0
290
     1
304
Drop Down\PPowered Transition
 11
0.0
 21
0.0
 31
1.0
340
11
 12
-12.59316969392955
 22
-569.352082654388
 32
-200.8507310852955
 13
0.0000000000000001
 23
1.0
 33
0.0
 42
1.570796326794896
 43
0.0
 44
0.0
 45
1.0
170
     1
 90
-1038915788
171
     1
172
     5
 91
-1027028792
141
1.5
 92
        0
291
     1
292
     1
173
     0
293
     0
142
0.0
143
0.0
294
     0
295
     0
296
     0
110
32.28651882082989
120
-631.3209216571757
130
-200.8507310852955
111
0.0000000000000001
121
1.0
131
0.0
112
-1.0
122
0.0000000000000001
132
0.0
297
     0
302
LEADER{
290
     1
291
     1
 10
-8.527685382878985
 20
-598.1120826543864
 30
-200.8507310852955
 11
0.0000000000000001
 21
1.0
 31
0.0
 90
        0
 40
23.0
304
LEADER_LINE{
 10
31.45689737500845
 20
-642.3538570578838
 30
-200.8507310852955
 91
        0
305
}
271
     0
303
}
272
     9
273
     9
301
}
340
A27
 90
   279552
170
     1
 91
-1073741824
341
14
171
    -2
290
     1
291
     1
 41
0.359375
 42
0.18
172
     2
343
11
173
     1
 95
        1
174
     1
175
     0
 92
-1073741824
292
     0
 93
-1056964608
 10
1.0
 20
1.0
 30
1.0
 43
0.0
176
     0
293
     0
294
     0
178
     0
179
     1
 45
64.0
271
     0
272
     9
273
     9
295
     0
  0
MULTILEADER
  5
CB1
330
1F
100
AcDbEntity
  8
Dims Magenta 1.5
 62
   219
420
  6562149
160
              1032
310
080400001F0000000C00000016000000652164C20C00000033000000000000000C00000013000000993A00000C00000016000000FFFFFFC20C00000014000000010000006C000000070000000400000070398BE5EDEA4AC0CFCA2C4EBE4A82C018A16530391B69C06F398BE5EDEA4AC0763AA28C0D2B7EC018A16530391B69
310
C0BC63E44CFF5E38C0763AA28C0D2B7EC018A16530391B69C0BE63E44CFF5E38C0CFCA2C4EBE4A82C018A16530391B69C00C00000016000000652164C20C00000014000000010000000C00000016000000652164C2C40000002600000070398BE5EDEA44C05EDE941CA43182C018A16530391B69C000000000000000000000
310
000000000000000000000000F03F075C143326A6913C000000000000F03F0000000000000000440072006F007000200044006F0077006E00000009000000010000000000000000002040000000000000F03F0000000000000000000000000000F03F0000000000000000000000000000000000000000000000000000000001
310
0000002200000041007200690061006C00000000000000000000000C00000016000000652164C2D8000000260000008C1DC17586803CC05EDE941CA43182C018A16530391B69C000000000000000000000000000000000000000000000F03F075C143326A6913C000000000000F03F000000000000000050006F0077006500
310
72006500640020005400720061006E0073006900740069006F006E000000000012000000010000000000000000002040000000000000F03F0000000000000000000000000000F03F00000000000000000000000000000000000000000000000000000000010000002200000041007200690061006C00000000000000000000
310
000C00000033000000000000000C00000010000000060000000C00000016000000652164C20C00000012000000FF7F00000C00000013000000010000000C0000001400000001000000540000000700000003000000FC4900DEFDC0354048BD9F7FA2EE83C018A16530391B69C020042C4C13843F400F992FF6EB2184C018A1
310
6530391B69C0BF33FD3ECD333440ABE0EE4EBC0A84C018A16530391B69C00C00000013000000891300003C0000000600000002000000DEBE7E8E65FA3440F94E4767AFFC83C018A16530391B69C0F00A541B8CE246C06F120EC9D21083C018A16530391B69C00C00000013000000112700003C0000000600000002000000F0
310
0A541B8CE246C06F120EC9D21083C018A16530391B69C0F00A541B8CE246C06F120EC9D25882C018A16530391B69C00C00000016000000652164C20C00000012000000FF7F00000C00000017000000000000000C000000130000009A3A00000C00000016000000652164C20C00000012000000FF7F00000C00000017000000
310
FFFFFFFF0C0000003300000000000000
100
AcDbMLeader
270
     2
300
CONTEXT_DATA{
 40
64.0
 10
-45.76990071872375
 20
-587.1029225444198
 30
-200.8507310852954
 41
8.0
140
11.52
145
5.759999999999999
174
     1
175
     1
176
     0
177
     0
290
     1
304
Drop Down\PPowered Transition
 11
0.0
 21
0.0
 31
1.0
340
11
 12
-49.83538502977433
 22
-581.3429225444214
 32
-200.8507310852954
 13
0.0000000000000001
 23
1.0
 33
0.0
 42
1.570796326794896
 43
0.0
 44
0.0
 45
1.0
170
     1
 90
-1033625243
171
     1
172
     5
 91
-1027028792
141
1.5
 92
        0
291
     1
292
     1
173
     0
293
     0
142
0.0
143
0.0
294
     0
295
     0
296
     0
110
32.34554090301401
120
-498.773646936237
130
-200.8507310852954
111
0.0000000000000001
121
1.0
131
0.0
112
-1.0
122
0.0000000000000001
132
0.0
297
     0
302
LEADER{
290
     1
291
     1
 10
-45.76990071872375
 20
-610.1029225444198
 30
-200.8507310852954
 11
0.0000000000000001
 21
1.0
 31
0.0
 90
        0
 40
23.0
304
LEADER_LINE{
 10
31.51591945719349
 20
-644.2402156561455
 30
-200.8507310852954
 91
        0
305
}
271
     0
303
}
272
     9
273
     9
301
}
340
A27
 90
   279552
170
     1
 91
-1073741824
341
14
171
    -2
290
     1
291
     1
 41
0.359375
 42
0.18
172
     2
343
11
173
     1
 95
        1
174
     1
175
     0
 92
-1073741824
292
     0
 93
-1056964608
 10
1.0
 20
1.0
 30
1.0
 43
0.0
176
     0
293
     0
294
     0
178
     0
179
     1
 45
64.0
271
     0
272
     9
273
     9
295
     0
  0
LWPOLYLINE
  5
CB2
102
{ACAD_REACTORS
330
CB5
102
}
330
1F
100
AcDbEntity
  8
Conv Green 1.5
 62
     1
100
AcDbPolyline
 90
        4
 70
     1
 43
0.0
 38
-200.8507310852954
 10
134.6472882363034
 20
786.0302662992891
 10
134.6472882363034
 20
834.0302662992892
 10
122.6472882363034
 20
834.0302662992892
 10
122.6472882363034
 20
786.0302662992891
  0
MULTILEADER
  5
CB3
102
{ACAD_XDICTIONARY
360
CB4
102
}
102
{ACAD_REACTORS
330
CB5
102
}
330
1F
100
AcDbEntity
  8
Dims Green 1.5
 62
     1
160
              1300
310
140500001E0000000C00000016000000010000C30C00000033000000000000000C00000013000000993A00000C00000016000000010000C3BC000000260000008B8BA32039636440F25BBC4E1E6C8B401CA16530391B69C000000000000000000000000000000000000000000000F03F075C143326A6913C000000000000F0
310
3F0000000000000000430043002D0030003600000005000000010000000000000000002040000000000000F03F0000000000000000000000000000F03F00000000000000000000000000000000000000000000000000000000010000002200000041007200690061006C00000000000000000000000C000000160000000100
310
00C3D4000000260000001249A0644112664002E19BCF796E8B401CA16530391B69C000000000000000000000000000000000000000000000F03F075C143326A6913C000000000000F03F000000000000000054006F002F00460072006F006D00200042006C0064006700200031002E00350000006E00100000000100000000
310
00000000002040000000000000F03F0000000000000000000000000000F03F00000000000000000000000000000000000000000000000000000000010000002200000041007200690061006C00000000000000000000000C00000016000000010000C3CC0000002600000099069DA849C1674084521382EF698B401CA16530
310
391B69C000000000000000000000000000000000000000000000F03F075C143326A6913C000000000000F03F00000000000000004D006100670065006E00740061002F0047007200650065006E0000000D000000010000000000000000002040000000000000F03F0000000000000000000000000000F03F00000000000000
310
000000000000000000000000000000000000000000010000002200000041007200690061006C00000000000000000069000C00000016000000010000C3D00000002600000020C499EC51706940FF88C7AE6F6F8B401CA16530391B69C000000000000000000000000000000000000000000000F03F075C143326A6913C0000
310
00000000F03F00000000000000003400380030002000560041004300200035003000200041006D007000000000000E000000010000000000000000002040000000000000F03F0000000000000000000000000000F03F0000000000000000000000000000000000000000000000000000000001000000220000004100720069
310
0061006C00000000000000000000000C00000033000000000000000C00000010000000040000000C00000016000000010000C30C00000012000000FF7F00000C00000013000000010000000C0000001400000001000000540000000700000003000000C4D0E0511B7B61408CE5927DBA2A8A401CA16530391B69C048C0D195
310
B6146040F1EC41FC3D108A401CA16530391B69C0404108995F4561409CCB35105B468A401CA16530391B69C00C00000013000000891300003C0000000600000002000000028974753D6061409458E4C68A388A401CA16530391B69C048C0A0C864026440F16448C77D8A8A401CA16530391B69C00C00000013000000112700
310
003C000000060000000200000048C0A0C864026440F16448C77D8A8A401CA16530391B69C048C0A0C864026440F16448C77D428B401CA16530391B69C00C00000016000000010000C30C00000012000000FF7F00000C00000017000000000000000C000000130000009A3A00000C00000016000000010000C30C0000001200
310
0000FF7F00000C00000017000000FFFFFFFF0C0000003300000000000000
100
AcDbMLeader
270
     2
300
CONTEXT_DATA{
 40
64.0
 10
160.0748026981039
 20
872.3114152580075
 30
-200.8507310852955
 41
8.0
140
11.52
145
5.759999999999999
174
     1
175
     1
176
     0
177
     0
290
     1
304
CC-06\PTo/From Bldg 1.5\PMagenta/Green\P480 VAC 50 Amp
 11
0.0
 21
0.0
 31
1.0
340
11
 12
154.9642979232062
 22
878.0714152580074
 32
-200.8507310852955
 13
0.0000000000000001
 23
1.0
 33
0.0
 42
1.570796326794896
 43
0.0
 44
0.0
 45
1.0
170
     1
 90
-1023410175
171
     1
172
     5
 91
-1073741824
141
0.0
 92
        0
291
     0
292
     0
173
     0
293
     0
142
0.0
143
0.0
294
     0
295
     0
296
     0
110
128.6472882363034
120
822.0302662992891
130
-200.8507310852955
111
0.0000000000000001
121
1.0
131
0.0
112
-1.0
122
0.0000000000000001
132
0.0
297
     0
302
LEADER{
290
     1
291
     1
 10
160.0748026981039
 20
849.3114152580075
 30
-200.8507310852955
 11
0.0000000000000001
 21
1.0
 31
0.0
 90
        0
 40
23.0
304
LEADER_LINE{
 10
128.6472882363034
 20
834.0302662992892
 30
-200.8507310852955
 91
        0
305
}
271
     0
303
}
272
     9
273
     9
301
}
340
A27
 90
   279552
170
     1
 91
-1073741824
341
14
171
    -2
290
     1
291
     1
 41
0.359375
 42
0.18
172
     2
343
11
173
     1
 95
        1
174
     1
175
     0
 92
-1073741824
292
     0
 93
-1056964608
 10
1.0
 20
1.0
 30
1.0
 43
0.0
176
     0
293
     0
294
     0
178
     0
179
     1
 45
64.0
271
     0
272
     9
273
     9
295
     0
  0
MULTILEADER
  5
CB6
330
1F
100
AcDbEntity
  8
Dims Green 1.5
 62
   116
420
  1271604
160
              1012
310
F40300001F0000000C00000016000000346713C20C00000033000000000000000C00000013000000993A00000C00000016000000FFFFFFC20C00000014000000010000006C000000070000000400000008024ED0924E54406FAD5095E75982C01CA16530391B69C008024ED0924E5440BF040F81699680C01CA16530391B69
310
C030C1289083435C40BF040F81699680C01CA16530391B69C030C1289083435C406FAD5095E75982C01CA16530391B69C00C00000016000000346713C20C00000014000000010000000C00000016000000346713C2C40000002600000008024ED0924E574014F640263D4182C01CA16530391B69C000000000000000000000
310
000000000000000000000000F03F075C143326A6913C000000000000F03F00000000000000004600690072006500200044006F006F007200000009000000010000000000000000002040000000000000F03F0000000000000000000000000000F03F0000000000000000000000000000000000000000000000000000000001
310
0000002200000041007200690061006C00000000000000000000000C00000016000000346713C2C4000000260000005A74B4C0FCAC5A40B9C94BFB734082C01CA16530391B69C000000000000000000000000000000000000000000000F03F075C143326A6913C000000000000F03F00000000000000004200790020004F00
310
74006800650072007300000009000000010000000000000000002040000000000000F03F0000000000000000000000000000F03F00000000000000000000000000000000000000000000000000000000010000002200000041007200690061006C00000000000000000000000C00000033000000000000000C000000100000
310
00040000000C00000016000000346713C20C00000012000000FF7F00000C00000013000000010000000C0000001400000001000000540000000700000003000000360C515A729846400474E75083FD83C01CA16530391B69C010A7FF1F3D1B41400F73A190631D84C01CA16530391B69C0D057E83C14A74540742E5485C0E2
310
83C01CA16530391B69C00C00000013000000891300003C000000060000000200000003B29C4BC31F46403CD11DEB21F083C01CA16530391B69C088280838D69956400FF53110FC1F83C01CA16530391B69C00C00000013000000112700003C000000060000000200000088280838D69956400FF53110FC1F83C01CA1653039
310
1B69C088280838D69956400FF53110FC6782C01CA16530391B69C00C00000016000000346713C20C00000012000000FF7F00000C00000017000000000000000C000000130000009A3A00000C00000016000000346713C20C00000012000000FF7F00000C00000017000000FFFFFFFF0C0000003300000000000000
100
AcDbMLeader
270
     2
300
CONTEXT_DATA{
 40
64.0
 10
90.40369988247595
 20
-588.9980777647886
 30
-200.8507310852955
 41
8.0
140
11.52
145
5.759999999999999
174
     1
175
     1
176
     0
177
     0
290
     1
304
Fire Door\PBy Others
 11
0.0
 21
0.0
 31
1.0
340
11
 12
85.2277107965275
 22
-583.2380777647903
 32
-200.8507310852955
 13
0.0000000000000001
 23
1.0
 33
0.0
 42
1.570796326794896
 43
0.0
 44
0.0
 45
1.0
170
     1
 90
-1038915788
171
     1
172
     5
 91
-1027028792
141
1.5
 92
        0
291
     1
292
     1
173
     0
293
     0
142
0.0
143
0.0
294
     0
295
     0
296
     0
110
34.21280288680112
120
-647.2400019425493
130
-200.8507310852955
111
0.0000000000000001
121
1.0
131
0.0
112
-1.0
122
0.0000000000000001
132
0.0
297
     0
302
LEADER{
290
     1
291
     1
 10
90.40369988247595
 20
-611.9980777647887
 30
-200.8507310852955
 11
0.0000000000000001
 21
1.0
 31
0.0
 90
        0
 40
23.0
304
LEADER_LINE{
 10
34.21280288680112
 20
-643.6736157048452
 30
-200.8507310852955
 91
        0
305
}
271
     0
303
}
272
     9
273
     9
301
}
340
A27
 90
   279552
170
     1
 91
-1073741824
341
14
171
    -2
290
     1
291
     1
 41
0.359375
 42
0.18
172
     2
343
11
173
     1
 95
        1
174
     1
175
     0
 92
-1073741824
292
     0
 93
-1056964608
 10
1.0
 20
1.0
 30
1.0
 43
0.0
176
     0
293
     0
294
     0
178
     0
179
     1
 45
64.0
271
     0
272
     9
273
     9
295
     0
  0
MULTILEADER
  5
CB7
330
1F
100
AcDbEntity
  8
Dims Magenta 1.5
 62
   219
420
  6562149
160
              1012
310
F40300001F0000000C00000016000000652164C20C00000033000000000000000C00000013000000993A00000C00000016000000FFFFFFC20C00000014000000010000006C000000070000000400000008A66A3AF86B52406FAD5095E75982C01CA16530391B69C008A66A3AF86B5240BF040F81699680C01CA16530391B69
310
C0306545FAE8605A40BF040F81699680C01CA16530391B69C0306545FAE8605A406FAD5095E75982C01CA16530391B69C00C00000016000000652164C20C00000014000000010000000C00000016000000652164C2C40000002600000008A66A3AF86B554014F640263D4182C01CA16530391B69C000000000000000000000
310
000000000000000000000000F03F075C143326A6913C000000000000F03F00000000000000004600690072006500200044006F006F007200000009000000010000000000000000002040000000000000F03F0000000000000000000000000000F03F0000000000000000000000000000000000000000000000000000000001
310
0000002200000041007200690061006C00000000000000000000000C00000016000000652164C2C4000000260000005A18D12A62CA5840B9C94BFB734082C01CA16530391B69C000000000000000000000000000000000000000000000F03F075C143326A6913C000000000000F03F00000000000000004200790020004F00
310
74006800650072007300000009000000010000000000000000002040000000000000F03F0000000000000000000000000000F03F00000000000000000000000000000000000000000000000000000000010000002200000041007200690061006C00000000000000000000000C00000033000000000000000C000000100000
310
00060000000C00000016000000652164C20C00000012000000FF7F00000C00000013000000010000000C00000014000000010000005400000007000000030000000D4528B70D754640E19DBDD2F9F783C01CA16530391B69C010A7FF1F3D1B41400F73A190631D84C01CA16530391B69C04197EFB9DD6845401007904F3BDE
310
83C01CA16530391B69C00C00000013000000891300003C000000060000000200000027EE8BB8F5EE454079D226911AEB83C01CA16530391B69C088CC24A23BB754400FF53110FC1F83C01CA16530391B69C00C00000013000000112700003C000000060000000200000088CC24A23BB754400FF53110FC1F83C01CA1653039
310
1B69C088CC24A23BB754400FF53110FC6782C01CA16530391B69C00C00000016000000652164C20C00000012000000FF7F00000C00000017000000000000000C000000130000009A3A00000C00000016000000652164C20C00000012000000FF7F00000C00000017000000FFFFFFFF0C0000003300000000000000
100
AcDbMLeader
270
     2
300
CONTEXT_DATA{
 40
64.0
 10
82.86301473230025
 20
-588.9980777647886
 30
-200.8507310852955
 41
8.0
140
11.52
145
5.759999999999999
174
     1
175
     1
176
     0
177
     0
290
     1
304
Fire Door\PBy Others
 11
0.0
 21
0.0
 31
1.0
340
11
 12
77.6870256463518
 22
-583.2380777647903
 32
-200.8507310852955
 13
0.0000000000000001
 23
1.0
 33
0.0
 42
1.570796326794896
 43
0.0
 44
0.0
 45
1.0
170
     1
 90
-1033625243
171
     1
172
     5
 91
-1027028792
141
1.5
 92
        0
291
     1
292
     1
173
     0
293
     0
142
0.0
143
0.0
294
     0
295
     0
296
     0
110
34.21280288680112
120
-647.2400019425493
130
-200.8507310852955
111
0.0000000000000001
121
1.0
131
0.0
112
-1.0
122
0.0000000000000001
132
0.0
297
     0
302
LEADER{
290
     1
291
     1
 10
82.86301473230025
 20
-611.9980777647887
 30
-200.8507310852955
 11
0.0000000000000001
 21
1.0
 31
0.0
 90
        0
 40
23.0
304
LEADER_LINE{
 10
34.21280288680112
 20
-643.6736157048452
 30
-200.8507310852955
 91
        0
305
}
271
     0
303
}
272
     9
273
     9
301
}
340
A27
 90
   279552
170
     1
 91
-1073741824
341
14
171
    -2
290
     1
291
     1
 41
0.359375
 42
0.18
172
     2
343
11
173
     1
 95
        1
174
     1
175
     0
 92
-1073741824
292
     0
 93
-1056964608
 10
1.0
 20
1.0
 30
1.0
 43
0.0
176
     0
293
     0
294
     0
178
     0
179
     1
 45
64.0
271
     0
272
     9
273
     9
295
     0
  0
MTEXT
  5
CB8
330
1F
100
AcDbEntity
  8
Dims Green 1.5
 62
   116
420
  1271604
100
AcDbMText
 10
158.2299168964966
 20
786.2814828184474
 30
-200.8507310852955
 40
8.0
 41
38.64742285187822
 46
0.0
 71
     1
 72
     5
  1
EL 108"
 11
0.0000000000000001
 21
1.0
 31
0.0
 73
     1
 44
1.0
1001
ACAD
1000
ACAD_MTEXT_COLUMN_INFO_BEGIN
1070
    75
1070
     2
1070
    79
1070
     0
1070
    76
1070
     1
1070
    78
1070
     0
1070
    48
1040
38.64742285187822
1070
    49
1040
1.0
1070
    50
1070
     1
1040
0.0
1000
ACAD_MTEXT_COLUMN_INFO_END
  0
MTEXT
  5
CB9
330
1F
100
AcDbEntity
  8
Dims Green 1.5
 62
   116
420
  1271604
100
AcDbMText
 10
865.1367234300634
 20
788.6605910433265
 30
-200.8507310852955
 40
8.0
 41
52.7229879515944
 46
0.0
 71
     1
 72
     5
  1
EL 108"
 11
0.0000000000000001
 21
1.0
 31
0.0
 73
     1
 44
1.0
1001
ACAD
1000
ACAD_MTEXT_COLUMN_INFO_BEGIN
1070
    75
1070
     2
1070
    79
1070
     0
1070
    76
1070
     1
1070
    78
1070
     0
1070
    48
1040
52.7229879515944
1070
    49
1040
1.0
1070
    50
1070
     1
1040
0.0
1000
ACAD_MTEXT_COLUMN_INFO_END
  0
MTEXT
  5
CBA
330
1F
100
AcDbEntity
  8
Dims Magenta 1.5
 62
   219
420
  6562149
100
AcDbMText
 10
167.9202606839756
 20
786.9032613168512
 30
-200.8507310852955
 40
8.0
 41
42.11497373483143
 46
0.0
 71
     1
 72
     5
  1
EL 124"
 11
0.0000000000000001
 21
1.0
 31
0.0
 73
     1
 44
1.0
1001
ACAD
1000
ACAD_MTEXT_COLUMN_INFO_BEGIN
1070
    75
1070
     2
1070
    79
1070
     0
1070
    76
1070
     1
1070
    78
1070
     0
1070
    48
1040
42.11497373483143
1070
    49
1040
1.0
1070
    50
1070
     1
1040
0.0
1000
ACAD_MTEXT_COLUMN_INFO_END
  0
MTEXT
  5
CBB
330
1F
100
AcDbEntity
  8
Dims Magenta 1.5
 62
   219
420
  6562149
100
AcDbMText
 10
874.5644545751948
 20
789.1820940355811
 30
-200.8507310852955
 40
8.0
 41
45.94705932267243
 46
0.0
 71
     1
 72
     5
  1
EL 124"
 11
0.0000000000000001
 21
1.0
 31
0.0
 73
     1
 44
1.0
1001
ACAD
1000
ACAD_MTEXT_COLUMN_INFO_BEGIN
1070
    75
1070
     2
1070
    79
1070
     0
1070
    76
1070
     1
1070
    78
1070
     0
1070
    48
1040
45.94705932267243
1070
    49
1040
1.0
1070
    50
1070
     1
1040
0.0
1000
ACAD_MTEXT_COLUMN_INFO_END
  0
LINE
  5
CBC
330
1F
100
AcDbEntity
  8
Conv Magenta 1.5
100
AcDbLine
 10
28.76001394537093
 20
553.1621770870097
 30
-200.8507310852954
 11
34.27182496899354
 21
553.1621770870097
 31
-200.8507310852954
  0
LINE
  5
CBD
330
1F
100
AcDbEntity
  8
Conv Magenta 1.5
100
AcDbLine
 10
34.21280288681942
 20
553.9784572401823
 30
-200.8507310852955
 11
28.70099186319681
 21
553.9784572401823
 31
-200.8507310852955
  0
LINE
  5
CBE
330
1F
100
AcDbEntity
  8
Conv Green 1.5
100
AcDbLine
 10
34.21280288681942
 20
553.9784572401823
 30
-200.8507310852955
 11
28.70099186319772
 21
553.9784572401823
 31
-200.8507310852955
  0
LINE
  5
CBF
330
1F
100
AcDbEntity
  8
Conv Green 1.5
 62
   116
420
  1271604
100
AcDbLine
 10
28.70099186319772
 20
552.2362663378136
 30
-200.8507310852955
 11
28.70099186319772
 21
549.828135042988
 31
-200.8507310852955
  0
LINE
  5
CC0
330
1F
100
AcDbEntity
  8
Conv Green 1.5
 62
   116
420
  1271604
100
AcDbLine
 10
34.21280288681942
 20
549.828135042988
 30
-200.8507310852955
 11
34.21280288682033
 21
552.2362663377954
 31
-200.8507310852955
  0
MULTILEADER
  5
CC1
330
1F
100
AcDbEntity
  8
Dims Green 1.5
 62
   116
420
  1271604
160
              1032
310
080400001F0000000C00000016000000346713C20C00000033000000000000000C00000013000000993A00000C00000016000000FFFFFFC20C00000014000000010000006C000000070000000400000060B1DF40A63D43C09188341C938683401CA16530391B69C05FB1DF40A63D43C0253610A4CABB86401CA16530391B69
310
C038A71A07E00822C0253610A4CABB86401CA16530391B69C03CA71A07E00822C09188341C938683401CA16530391B69C00C00000016000000346713C20C00000014000000010000000C00000016000000346713C2C400000026000000C062BF814C7B3AC00275CC4DAD9F83401CA16530391B69C000000000000000000000
310
000000000000000000000000F03F075C143326A6913C000000000000F03F0000000000000000440072006F007000200044006F0077006E00000009000000010000000000000000002040000000000000F03F0000000000000000000000000000F03F0000000000000000000000000000000000000000000000000000000001
310
0000002200000041007200690061006C00000000000000000000000C00000016000000346713C2D800000026000000D61AD458EE4B2AC00275CC4DAD9F83401CA16530391B69C000000000000000000000000000000000000000000000F03F075C143326A6913C000000000000F03F000000000000000050006F0077006500
310
72006500640020005400720061006E0073006900740069006F006E000000000012000000010000000000000000002040000000000000F03F0000000000000000000000000000F03F00000000000000000000000000000000000000000000000000000000010000002200000041007200690061006C00000000000000000000
310
000C00000033000000000000000C00000010000000040000000C00000016000000346713C20C00000012000000FF7F00000C00000013000000010000000C0000001400000001000000540000000700000003000000486DFB98625D3740537EBC3E329381401CA16530391B69C0404AF339F7743F40F1B863E1D34F81401CA1
310
6530391B69C026FCF27E2F123540C588EC188F7A81401CA16530391B69C00C00000013000000891300003C0000000600000002000000B734F70BC93736408C83D4ABE08681401CA16530391B69C0C00551ED886A3EC0F14053A17EC082401CA16530391B69C00C00000013000000112700003C0000000600000002000000C0
310
0551ED886A3EC0F14053A17EC082401CA16530391B69C0C00551ED886A3EC0F14053A17E7883401CA16530391B69C00C00000016000000346713C20C00000012000000FF7F00000C00000017000000000000000C000000130000009A3A00000C00000016000000346713C20C00000012000000FF7F00000C00000017000000
310
FFFFFFFF0C0000003300000000000000
100
AcDbMLeader
270
     2
300
CONTEXT_DATA{
 40
64.0
 10
-30.41615184047782
 20
623.061831140918
 30
-200.8507310852955
 41
8.0
140
11.52
145
5.759999999999999
174
     1
175
     1
176
     0
177
     0
290
     1
304
Drop Down\PPowered Transition
 11
0.0
 21
0.0
 31
1.0
340
11
 12
-34.48163615152839
 22
628.8218311409165
 32
-200.8507310852955
 13
0.0000000000000001
 23
1.0
 33
0.0
 42
1.570796326794896
 43
0.0
 44
0.0
 45
1.0
170
     1
 90
-1038915788
171
     1
172
     5
 91
-1027028792
141
1.5
 92
        0
291
     1
292
     1
173
     0
293
     0
142
0.0
143
0.0
294
     0
295
     0
296
     0
110
32.28651882083
120
657.1520710193673
130
-200.8507310852955
111
0.0000000000000001
121
1.0
131
0.0
112
-1.0
122
0.0000000000000001
132
0.0
297
     0
302
LEADER{
290
     1
291
     1
 10
-30.41615184047782
 20
600.0618311409181
 30
-200.8507310852955
 11
0.0000000000000001
 21
1.0
 31
0.0
 90
        0
 40
23.0
304
LEADER_LINE{
 10
31.45689737500857
 20
553.9784572401823
 30
-200.8507310852955
 91
        0
305
}
271
     0
303
}
272
     9
273
     9
301
}
340
A27
 90
   279552
170
     1
 91
-1073741824
341
14
171
    -2
290
     1
291
     1
 41
0.359375
 42
0.18
172
     2
343
11
173
     1
 95
        1
174
     1
175
     0
 92
-1073741824
292
     0
 93
-1056964608
 10
1.0
 20
1.0
 30
1.0
 43
0.0
176
     0
293
     0
294
     0
178
     0
179
     1
 45
64.0
271
     0
272
     9
273
     9
295
     0
  0
MULTILEADER
  5
CC2
330
1F
100
AcDbEntity
  8
Dims Magenta 1.5
 62
   219
420
  6562149
160
              1032
310
080400001F0000000C00000016000000652164C20C00000033000000000000000C00000013000000993A00000C00000016000000FFFFFFC20C00000014000000010000006C0000000700000004000000B0CE54D12A9F52C0917A1209E16F834018A16530391B69C0B0CE54D12A9F52C02528EE9018A5864018A16530391B69
310
C0CF959063E78246C02528EE9018A5864018A16530391B69C0CF959063E78246C0917A1209E16F834018A16530391B69C00C00000016000000652164C20C00000014000000010000000C00000016000000652164C2C400000026000000609DA9A2553E4FC00267AA3AFB88834018A16530391B69C000000000000000000000
310
000000000000000000000000F03F075C143326A6913C000000000000F03F0000000000000000440072006F007000200044006F0077006E00000009000000010000000000000000002040000000000000F03F0000000000000000000000000000F03F0000000000000000000000000000000000000000000000000000000001
310
0000002200000041007200690061006C00000000000000000000000C00000016000000652164C2D800000026000000B6F2FEF7AA9348C00267AA3AFB88834018A16530391B69C000000000000000000000000000000000000000000000F03F075C143326A6913C000000000000F03F000000000000000050006F0077006500
310
72006500640020005400720061006E0073006900740069006F006E000000000012000000010000000000000000002040000000000000F03F0000000000000000000000000000F03F00000000000000000000000000000000000000000000000000000000010000002200000041007200690061006C00000000000000000000
310
000C00000033000000000000000C00000010000000060000000C00000016000000652164C20C00000012000000FF7F00000C00000013000000010000000C0000001400000001000000540000000700000003000000BE6A43388CBD3540C9357C9F227D814018A16530391B69C0404AF339F7743F40F12680234C49814018A1
310
6530391B69C022146199022A344057884E751F61814018A16530391B69C00C00000013000000891300003C0000000600000002000000703FD268C7F33440105F650A216F814018A16530391B69C0703739ECF99A50C0F132318ECCA9824018A16530391B69C00C00000013000000112700003C000000060000000200000070
310
3739ECF99A50C0F132318ECCA9824018A16530391B69C0703739ECF99A50C0F132318ECC61834018A16530391B69C00C00000016000000652164C20C00000012000000FF7F00000C00000017000000000000000C000000130000009A3A00000C00000016000000652164C20C00000012000000FF7F00000C00000017000000
310
FFFFFFFF0C0000003300000000000000
100
AcDbMLeader
270
     2
300
CONTEXT_DATA{
 40
64.0
 10
-66.42150407397799
 20
620.2248805850668
 30
-200.8507310852954
 41
8.0
140
11.52
145
5.759999999999999
174
     1
175
     1
176
     0
177
     0
290
     1
304
Drop Down\PPowered Transition
 11
0.0
 21
0.0
 31
1.0
340
11
 12
-70.48698838502855
 22
625.9848805850652
 32
-200.8507310852954
 13
0.0000000000000001
 23
1.0
 33
0.0
 42
1.570796326794896
 43
0.0
 44
0.0
 45
1.0
170
     1
 90
-1033625243
171
     1
172
     5
 91
-1027028792
141
1.5
 92
        0
291
     1
292
     1
173
     0
293
     0
142
0.0
143
0.0
294
     0
295
     0
296
     0
110
32.34554090301413
120
789.699345740306
130
-200.8507310852954
111
0.0000000000000001
121
1.0
131
0.0
112
-1.0
122
0.0000000000000001
132
0.0
297
     0
302
LEADER{
290
     1
291
     1
 10
-66.42150407397799
 20
597.2248805850669
 30
-200.8507310852954
 11
0.0000000000000001
 21
1.0
 31
0.0
 90
        0
 40
23.0
304
LEADER_LINE{
 10
31.45689737500857
 20
553.1621770870097
 30
-200.8507310852954
 91
        0
305
}
271
     0
303
}
272
     9
273
     9
301
}
340
A27
 90
   279552
170
     1
 91
-1073741824
341
14
171
    -2
290
     1
291
     1
 41
0.359375
 42
0.18
172
     2
343
11
173
     1
 95
        1
174
     1
175
     0
 92
-1073741824
292
     0
 93
-1056964608
 10
1.0
 20
1.0
 30
1.0
 43
0.0
176
     0
293
     0
294
     0
178
     0
179
     1
 45
64.0
271
     0
272
     9
273
     9
295
     0
  0
MULTILEADER
  5
CC3
330
1F
100
AcDbEntity
  8
Dims Green 1.5
 62
   116
420
  1271604
160
               856
310
580300001A0000000C00000016000000346713C20C00000033000000000000000C00000013000000993A00000C00000016000000346713C2C40000002600000010F052E6CE085240ECDBCEAFCF8883401CA16530391B69C000000000000000000000000000000000000000000000F03F075C143326A6913C000000000000F0
310
3F00000000000000004600690072006500200044006F006F007200000009000000010000000000000000002040000000000000F03F0000000000000000000000000000F03F00000000000000000000000000000000000000000000000000000000010000002200000041007200690061006C00000000000000000000000C00
310
000016000000346713C2C4000000260000006262B9D6386755404708C4DA988983401CA16530391B69C000000000000000000000000000000000000000000000F03F075C143326A6913C000000000000F03F00000000000000004200790020004F007400680065007200730000000900000001000000000000000000204000
310
0000000000F03F0000000000000000000000000000F03F00000000000000000000000000000000000000000000000000000000010000002200000041007200690061006C00000000000000000000000C00000033000000000000000C00000010000000040000000C00000016000000346713C20C00000012000000FF7F0000
310
0C00000013000000010000000C000000140000000100000054000000070000000300000011322D4A506C4540660AB6ED308481401CA16530391B69C020A7FF1F3D1B4140719EC403454581401CA16530391B69C02F083F6E11EA434031824CAC309781401CA16530391B69C00C00000013000000891300003C000000060000
310
0002000000201D36DC30AB44404B4601CDB08D81401CA16530391B69C090160D4E12545140F1DCDDC510AA82401CA16530391B69C00C00000013000000112700003C000000060000000200000090160D4E12545140F1DCDDC510AA82401CA16530391B69C090160D4E12545140F1DCDDC5106283401CA16530391B69C00C00
310
000016000000346713C20C00000012000000FF7F00000C00000017000000000000000C000000130000009A3A00000C00000016000000346713C20C00000012000000FF7F00000C00000017000000FFFFFFFF0C0000003300000000000000
100
AcDbMLeader
270
     2
300
CONTEXT_DATA{
 40
64.0
 10
69.31361724165094
 20
620.2581899006892
 30
-200.8507310852955
 41
8.0
140
11.52
145
5.759999999999999
174
     1
175
     1
176
     0
177
     0
290
     1
304
Fire Door\PBy Others
 11
0.0
 21
0.0
 31
1.0
340
11
 12
64.13762815570248
 22
626.0181899006876
 32
-200.8507310852955
 13
0.0000000000000001
 23
1.0
 33
0.0
 42
1.570796326794896
 43
0.0
 44
0.0
 45
1.0
170
     1
 90
-1038915788
171
     1
172
     5
 91
-1073741824
141
0.0
 92
        0
291
     0
292
     0
173
     0
293
     0
142
0.0
143
0.0
294
     0
295
     0
296
     0
110
34.21280288680123
120
641.2329907339937
130
-200.8507310852955
111
0.0000000000000001
121
1.0
131
0.0
112
-1.0
122
0.0000000000000001
132
0.0
297
     0
302
LEADER{
290
     1
291
     1
 10
69.31361724165094
 20
597.2581899006891
 30
-200.8507310852955
 11
0.0000000000000001
 21
1.0
 31
0.0
 90
        0
 40
23.0
304
LEADER_LINE{
 10
34.21280288680123
 20
552.6586985932209
 30
-200.8507310852955
 91
        0
305
}
271
     0
303
}
272
     9
273
     9
301
}
340
A27
 90
   279552
170
     1
 91
-1073741824
341
14
171
    -2
290
     1
291
     1
 41
0.359375
 42
0.18
172
     2
343
11
173
     1
 95
        1
174
     1
175
     0
 92
-1073741824
292
     0
 93
-1056964608
 10
1.0
 20
1.0
 30
1.0
 43
0.0
176
     0
293
     0
294
     0
178
     0
179
     1
 45
64.0
271
     0
272
     9
273
     9
295
     0
  0
MULTILEADER
  5
CC4
330
1F
100
AcDbEntity
  8
Dims Magenta 1.5
 62
   219
420
  6562149
160
               856
310
580300001A0000000C00000016000000652164C20C00000033000000000000000C00000013000000993A00000C00000016000000652164C2C40000002600000010364DEEF3DA5840EC8DFA618B4583401CA16530391B69C000000000000000000000000000000000000000000000F03F075C143326A6913C000000000000F0
310
3F00000000000000004600690072006500200044006F006F007200000009000000010000000000000000002040000000000000F03F0000000000000000000000000000F03F00000000000000000000000000000000000000000000000000000000010000002200000041007200690061006C00000000000000000000000C00
310
000016000000652164C2C40000002600000062A8B3DE5D395C4047BAEF8C544683401CA16530391B69C000000000000000000000000000000000000000000000F03F075C143326A6913C000000000000F03F00000000000000004200790020004F007400680065007200730000000900000001000000000000000000204000
310
0000000000F03F0000000000000000000000000000F03F00000000000000000000000000000000000000000000000000000000010000002200000041007200690061006C00000000000000000000000C00000033000000000000000C00000010000000060000000C00000016000000652164C20C00000012000000FF7F0000
310
0C00000013000000010000000C0000001400000001000000540000000700000003000000F73B78AB61914640A37A7E2A9F6D81401CA16530391B69C0204AE316AF134140F14C0E89D44D81401CA16530391B69C028CCEBF56CA045402DC9B2AB658881401CA16530391B69C00C00000013000000891300003C000000060000
310
00020000001004B250E7184640E8A1186B027B81401CA16530391B69C0905C075637265840F18E0978CC6682401CA16530391B69C00C00000013000000112700003C0000000600000002000000905C075637265840F18E0978CC6682401CA16530391B69C0905C075637265840F18E0978CC1E83401CA16530391B69C00C00
310
000016000000652164C20C00000012000000FF7F00000C00000017000000000000000C000000130000009A3A00000C00000016000000652164C20C00000012000000FF7F00000C00000017000000FFFFFFFF0C0000003300000000000000
100
AcDbMLeader
270
     2
300
CONTEXT_DATA{
 40
64.0
 10
96.59712744444755
 20
611.8498383280512
 30
-200.8507310852955
 41
8.0
140
11.52
145
5.759999999999999
174
     1
175
     1
176
     0
177
     0
290
     1
304
Fire Door\PBy Others
 11
0.0
 21
0.0
 31
1.0
340
11
 12
91.4211383584991
 22
617.6098383280496
 32
-200.8507310852955
 13
0.0000000000000001
 23
1.0
 33
0.0
 42
1.570796326794896
 43
0.0
 44
0.0
 45
1.0
170
     1
 90
-1033625243
171
     1
172
     5
 91
-1073741824
141
0.0
 92
        0
291
     0
292
     0
173
     0
293
     0
142
0.0
143
0.0
294
     0
295
     0
296
     0
110
34.21280288680123
120
641.2329907339937
130
-200.8507310852955
111
0.0000000000000001
121
1.0
131
0.0
112
-1.0
122
0.0000000000000001
132
0.0
297
     0
302
LEADER{
290
     1
291
     1
 10
96.59712744444755
 20
588.8498383280513
 30
-200.8507310852955
 11
0.0000000000000001
 21
1.0
 31
0.0
 90
        0
 40
23.0
304
LEADER_LINE{
 10
34.15378080461619
 20
553.7287770383101
 30
-200.8507310852955
 91
        0
305
}
271
     0
303
}
272
     9
273
     9
301
}
340
A27
 90
   279552
170
     1
 91
-1073741824
341
14
171
    -2
290
     1
291
     1
 41
0.359375
 42
0.18
172
     2
343
11
173
     1
 95
        1
174
     1
175
     0
 92
-1073741824
292
     0
 93
-1056964608
 10
1.0
 20
1.0
 30
1.0
 43
0.0
176
     0
293
     0
294
     0
178
     0
179
     1
 45
64.0
271
     0
272
     9
273
     9
295
     0
  0
LINE
  5
CC5
330
1F
100
AcDbEntity
  8
Conv Green 1.5
100
AcDbLine
 10
34.21280288682033
 20
552.2362663377954
 30
-200.8507310852955
 11
28.70099186319862
 21
552.2362663377954
 31
-200.8507310852955
  0
MULTILEADER
  5
CC6
330
1F
100
AcDbEntity
  8
Dims Magenta 1.5
 62
   219
420
  6562149
160
              1000
310
E8030000240000000C00000016000000652164C20C00000033000000000000000C00000013000000993A00000C00000016000000FFFFFFC20C00000014000000010000006C0000000700000004000000906DA62863C34740DEAEEB1A692F77C01CA16530391B69C0906DA62863C34740AC7EFDCBB2C074C01CA16530391B69
310
C03A500A730AD94F40AC7EFDCBB2C074C01CA16530391B69C03A500A730AD94F40DEAEEB1A692F77C01CA16530391B69C00C00000016000000652164C20C00000014000000010000000C00000016000000652164C2BC00000026000000CA04C20D94C74D40FCD5BBB734FD76C01CA16530391B69C000000000000000000000
310
000000000000000000000000F03F075C143326A6913C000000000000F03F000000000000000050003200310032003000000005000000010000000000000000002040000000000000F03F0000000000000000000000000000F03F00000000000000000000000000000000000000000000000000000000010000002200000041
310
007200690061006C00000000000000000000000C00000033000000000000000C00000010000000060000000C00000016000000652164C20C00000012000000FF7F00000C00000013000000010000000C00000014000000010000005400000007000000030000006ECA401C5E834740736C4391D94479C01CA16530391B69C0
310
10D32CD5214942401E6E6AA7209879C01CA16530391B69C0CA5E3B70F56246400E5F8D3C191379C01CA16530391B69C00C00000013000000891300003C00000006000000020000009C143EC629F34640C165E866F92B79C01CA16530391B69C010934A5B1ECC4B401E3EAE1092BB78C01CA16530391B69C00C000000130000
310
00112700003C000000060000000200000010934A5B1ECC4B401E3EAE1092BB78C01CA16530391B69C010934A5B1ECC4B401E3EAE10924B77C01CA16530391B69C00C00000016000000652164C20C00000012000000FF7F00000C00000017000000000000000C000000130000009A3A00000C00000016000000652164C20C00
310
000012000000FF7F00000C00000017000000FFFFFFFF0C00000033000000000000000C00000033000000000000000C00000010000000060000000C00000016000000652164C2840000000600000005000000AFF2917A1BE246403A3EAE10924B77C01CA16530391B69C0AFF2917A1BE246404FEF3AD689A474C01CA1653039
310
1B69C08E658F10295D50404FEF3AD689A474C01CA16530391B69C08E658F10295D50403A3EAE10924B77C01CA16530391B69C0AFF2917A1BE246403A3EAE10924B77C01CA16530391B69C00C0000000E000000DB0000000C00000017000000FFFFFFFF0C0000003300000000000000
100
AcDbMLeader
270
     2
300
CONTEXT_DATA{
 40
64.0
 10
55.59467641011554
 20
-372.7231604391435
 30
-200.8507310852955
 41
8.0
140
11.52
145
5.759999999999999
174
     1
175
     1
176
     0
177
     0
290
     1
304
P2120
 11
0.0
 21
0.0
 31
1.0
340
11
 12
51.52646358610502
 22
-366.9631604391451
 32
-200.8507310852955
 13
0.0000000000000001
 23
1.0
 33
0.0
 42
1.570796326794896
 43
0.0
 44
0.0
 45
1.0
170
     1
 90
-1033625243
171
     1
172
     5
 91
-1027028792
141
1.5
 92
        0
291
     1
292
     1
173
     0
293
     0
142
0.0
143
0.0
294
     0
295
     0
296
     0
110
-5212.306065490813
120
-3102.704911448965
130
-200.8507310852955
111
0.0000000000000001
121
1.0
131
0.0
112
-1.0
122
0.0000000000000001
132
0.0
297
     0
302
LEADER{
290
     1
291
     1
 10
55.59467641011554
 20
-395.7231604391435
 30
-200.8507310852955
 11
0.0000000000000001
 21
1.0
 31
0.0
 90
        0
 40
23.0
304
LEADER_LINE{
 10
36.57134499252982
 20
-409.507972160094
 30
-200.8507310852955
 91
        0
305
}
271
     0
303
}
272
     9
273
     9
301
}
340
A27
 90
 17171456
170
     1
 91
-1073741824
341
14
171
    -2
290
     1
291
     1
 41
0.359375
 42
0.18
172
     2
343
11
173
     1
 95
        1
174
     1
175
     0
 92
-1073741824
292
     1
 93
-1056964608
 10
1.0
 20
1.0
 30
1.0
 43
0.0
176
     0
293
     0
294
     0
178
     0
179
     1
 45
64.0
271
     0
272
     9
273
     9
295
     0
1001
ACAD_MLEADERVER
1070
     2
  0
MULTILEADER
  5
CC7
330
1F
100
AcDbEntity
  8
Dims Magenta 1.5
 62
   219
420
  6562149
160
               844
310
4C0300001F0000000C00000016000000652164C20C00000033000000000000000C00000013000000993A00000C00000016000000652164C2BC00000026000000D244DA2107DA4B40048ACC6C27B578401CA16530391B69C000000000000000000000000000000000000000000000F03F075C143326A6913C000000000000F0
310
3F000000000000000050003200310032003500000005000000010000000000000000002040000000000000F03F0000000000000000000000000000F03F00000000000000000000000000000000000000000000000000000000010000002200000041007200690061006C00000000000000000000000C000000330000000000
310
00000C00000010000000060000000C00000016000000652164C20C00000012000000FF7F00000C00000013000000010000000C0000001400000001000000540000000700000003000000E63C9BE2D99B4640AB3E09A65D5876401CA16530391B69C018D380316DFF4140E201C613B6E575401CA16530391B69C07899D6EE8F
310
324540AC3F56F8058276401CA16530391B69C00C00000013000000891300003C00000006000000020000002FEBB8E834E745402BBF2FCF316D76401CA16530391B69C018D3626F91DE4940E221DA13CAF676401CA16530391B69C00C00000013000000112700003C000000060000000200000018D3626F91DE4940E221DA13
310
CAF676401CA16530391B69C018D3626F91DE4940E221DA13CA6678401CA16530391B69C00C00000016000000652164C20C00000012000000FF7F00000C00000017000000000000000C000000130000009A3A00000C00000016000000652164C20C00000012000000FF7F00000C00000017000000FFFFFFFF0C000000330000
310
00000000000C00000033000000000000000C00000010000000060000000C00000016000000652164C2840000000600000005000000B732AA8E8EF44440C621DA13CA6678401CA16530391B69C0B732AA8E8EF44440C44D01F0370F7B401CA16530391B69C0230B3735C5CC4E40C44D01F0370F7B401CA16530391B69C0230B
310
3735C5CC4E40C621DA13CA6678401CA16530391B69C0B732AA8E8EF44440C621DA13CA6678401CA16530391B69C00C0000000E000000DB0000000C00000017000000FFFFFFFF0C0000003300000000000000
100
AcDbMLeader
270
     2
300
CONTEXT_DATA{
 40
64.0
 10
51.73881332707805
 20
390.4243353386684
 30
-200.8507310852955
 41
8.0
140
11.52
145
5.759999999999999
174
     1
175
     1
176
     0
177
     0
290
     1
304
P2125
 11
0.0
 21
0.0
 31
1.0
340
11
 12
47.67060050306753
 22
396.1843353386667
 32
-200.8507310852955
 13
0.0000000000000001
 23
1.0
 33
0.0
 42
1.570796326794896
 43
0.0
 44
0.0
 45
1.0
170
     1
 90
-1033625243
171
     1
172
     5
 91
-1073741824
141
0.0
 92
        0
291
     0
292
     0
173
     0
293
     0
142
0.0
143
0.0
294
     0
295
     0
296
     0
110
-5212.306065490813
120
-3102.704911448965
130
-200.8507310852955
111
0.0000000000000001
121
1.0
131
0.0
112
-1.0
122
0.0000000000000001
132
0.0
297
     0
302
LEADER{
290
     1
291
     1
 10
51.73881332707805
 20
367.4243353386684
 30
-200.8507310852955
 11
0.0000000000000001
 21
1.0
 31
0.0
 90
        0
 40
23.0
304
LEADER_LINE{
 10
35.99551981725944
 20
350.3569524511969
 30
-200.8507310852955
 91
        0
305
}
271
     0
303
}
272
     9
273
     9
301
}
340
A27
 90
 17171456
170
     1
 91
-1073741824
341
14
171
    -2
290
     1
291
     1
 41
0.359375
 42
0.18
172
     2
343
11
173
     1
 95
        1
174
     1
175
     0
 92
-1073741824
292
     1
 93
-1056964608
 10
1.0
 20
1.0
 30
1.0
 43
0.0
176
     0
293
     0
294
     0
178
     0
179
     1
 45
64.0
271
     0
272
     9
273
     9
295
     0
1001
ACAD_MLEADERVER
1070
     2
  0
MULTILEADER
  5
CC8
330
1F
100
AcDbEntity
  8
Dims Magenta 1.5
 62
   219
420
  6562149
160
               748
310
EC0200001D0000000C00000016000000652164C20C00000033000000000000000C00000013000000993A00000C00000016000000652164C2BC000000260000005623AF2CD5E26C400275B7A0337D89401CA16530391B69C000000000000000000000000000000000000000000000F03F075C143326A6913C000000000000F0
310
3F000000000000000050003200310033003000000005000000010000000000000000002040000000000000F03F0000000000000000000000000000F03F00000000000000000000000000000000000000000000000000000000010000002200000041007200690061006C00000000000000000000000C000000330000000000
310
00000C00000010000000060000000C00000016000000652164C20C00000012000000FF7F00000C00000013000000010000000C00000013000000891300003C0000000600000002000000C824924E37EA6A40F1A88CCEBE4488401CA16530391B69C0C8842C1A0E646C40F1403EF4049E88401CA16530391B69C00C00000013
310
000000112700003C0000000600000002000000C8842C1A0E646C40F1403EF4049E88401CA16530391B69C0C8842C1A0E646C40F1403EF4045689401CA16530391B69C00C00000016000000652164C20C00000012000000FF7F00000C00000017000000000000000C000000130000009A3A00000C00000016000000652164C2
310
0C00000012000000FF7F00000C00000017000000FFFFFFFF0C00000033000000000000000C00000033000000000000000C00000010000000060000000C00000016000000652164C2840000000600000005000000D01EE30777296B40E3403EF4045689401CA16530391B69C0D01EE30777296B4058E8771189A98A401CA165
310
30391B69C08ED0BC65B19F6D4058E8771189A98A401CA16530391B69C08ED0BC65B19F6D40E3403EF4045689401CA16530391B69C0D01EE30777296B40E3403EF4045689401CA16530391B69C00C0000000E000000DB0000000C00000017000000FFFFFFFF0C0000003300000000000000
100
AcDbMLeader
270
     2
300
CONTEXT_DATA{
 40
64.0
 10
227.1267214650636
 20
810.7524189818924
 30
-200.8507310852955
 41
8.0
140
11.52
145
5.759999999999999
174
     1
175
     1
176
     0
177
     0
290
     1
304
P2130
 11
0.0
 21
0.0
 31
1.0
340
11
 12
223.0557801280923
 22
816.5124189818907
 32
-200.8507310852955
 13
0.0000000000000001
 23
1.0
 33
0.0
 42
1.570796326794896
 43
0.0
 44
0.0
 45
1.0
170
     1
 90
-1033625243
171
     1
172
     5
 91
-1073741824
141
0.0
 92
        0
291
     0
292
     0
173
     0
293
     0
142
0.0
143
0.0
294
     0
295
     0
296
     0
110
-5212.306065490813
120
-3102.704911448965
130
-200.8507310852955
111
0.0000000000000001
121
1.0
131
0.0
112
-1.0
122
0.0000000000000001
132
0.0
297
     0
302
LEADER{
290
     1
291
     1
 10
227.1267214650636
 20
787.7524189818924
 30
-200.8507310852955
 11
0.0000000000000001
 21
1.0
 31
0.0
 90
        0
 40
23.0
304
LEADER_LINE{
 10
215.3192513326997
 20
776.5931673993165
 30
-200.8507310852955
 91
        0
305
}
271
     0
303
}
272
     9
273
     9
301
}
340
A27
 90
 17171456
170
     1
 91
-1073741824
341
14
171
    -2
290
     1
291
     1
 41
0.359375
 42
0.18
172
     2
343
11
173
     1
 95
        1
174
     1
175
     0
 92
-1073741824
292
     1
 93
-1056964608
 10
1.0
 20
1.0
 30
1.0
 43
0.0
176
     0
293
     0
294
     0
178
     0
179
     1
 45
64.0
271
     0
272
     9
273
     9
295
     0
1001
ACAD_MLEADERVER
1070
     2
  0
MULTILEADER
  5
CC9
330
1F
100
AcDbEntity
  8
Dims Magenta 1.5
 62
   219
420
  6562149
160
               844
310
4C0300001F0000000C00000016000000652164C20C00000033000000000000000C00000013000000993A00000C00000016000000652164C2BC00000026000000D63CA91A35F384400295026DF09789401CA16530391B69C000000000000000000000000000000000000000000000F03F075C143326A6913C000000000000F0
310
3F000000000000000050003200310033003500000005000000010000000000000000002040000000000000F03F0000000000000000000000000000F03F00000000000000000000000000000000000000000000000000000000010000002200000041007200690061006C00000000000000000000000C000000330000000000
310
00000C00000010000000060000000C00000016000000652164C20C00000012000000FF7F00000C00000013000000010000000C00000014000000010000005400000007000000030000003AB927BAE49484408812FAAB806C88401CA16530391B69C032B1AEC9D2458440F1387EDEBA3A88401CA16530391B69C024797C177A
310
808440DCDF05E1748388401CA16530391B69C00C00000013000000891300003C00000006000000020000002F19D268AF8A844032F97FC6FA7788401CA16530391B69C03295085683D38440F16089C0C1B888401CA16530391B69C00C00000013000000112700003C00000006000000020000003295085683D38440F16089C0
310
C1B888401CA16530391B69C03295085683D38440F16089C0C17089401CA16530391B69C00C00000016000000652164C20C00000012000000FF7F00000C00000017000000000000000C000000130000009A3A00000C00000016000000652164C20C00000012000000FF7F00000C00000017000000FFFFFFFF0C000000330000
310
00000000000C00000033000000000000000C00000010000000060000000C00000016000000652164C2840000000600000005000000B43B7691DD848440E36089C0C17089401CA16530391B69C0B43B7691DD848440E2F69CAEF8C48A401CA16530391B69C023A8EC286C228540E2F69CAEF8C48A401CA16530391B69C023A8
310
EC286C228540E36089C0C17089401CA16530391B69C0B43B7691DD848440E36089C0C17089401CA16530391B69C00C0000000E000000DB0000000C00000017000000FFFFFFFF0C0000003300000000000000
100
AcDbMLeader
270
     2
300
CONTEXT_DATA{
 40
64.0
 10
666.4391289396792
 20
814.0946055157384
 30
-200.8507310852955
 41
8.0
140
11.52
145
5.759999999999999
174
     1
175
     1
176
     0
177
     0
290
     1
304
P2135
 11
0.0
 21
0.0
 31
1.0
340
11
 12
662.3681876027078
 22
819.8546055157368
 32
-200.8507310852955
 13
0.0000000000000001
 23
1.0
 33
0.0
 42
1.570796326794896
 43
0.0
 44
0.0
 45
1.0
170
     1
 90
-1033625243
171
     1
172
     5
 91
-1073741824
141
0.0
 92
        0
291
     0
292
     0
173
     0
293
     0
142
0.0
143
0.0
294
     0
295
     0
296
     0
110
-5212.306065490813
120
-3102.704911448965
130
-200.8507310852955
111
0.0000000000000001
121
1.0
131
0.0
112
-1.0
122
0.0000000000000001
132
0.0
297
     0
302
LEADER{
290
     1
291
     1
 10
666.4391289396792
 20
791.0946055157384
 30
-200.8507310852955
 11
0.0000000000000001
 21
1.0
 31
0.0
 90
        0
 40
23.0
304
LEADER_LINE{
 10
648.7279237411333
 20
775.3412446843269
 30
-200.8507310852955
 91
        0
305
}
271
     0
303
}
272
     9
273
     9
301
}
340
A27
 90
 17171456
170
     1
 91
-1073741824
341
14
171
    -2
290
     1
291
     1
 41
0.359375
 42
0.18
172
     2
343
11
173
     1
 95
        1
174
     1
175
     0
 92
-1073741824
292
     1
 93
-1056964608
 10
1.0
 20
1.0
 30
1.0
 43
0.0
176
     0
293
     0
294
     0
178
     0
179
     1
 45
64.0
271
     0
272
     9
273
     9
295
     0
1001
ACAD_MLEADERVER
1070
     2
  0
MULTILEADER
  5
CCA
330
1F
100
AcDbEntity
  8
Dims Magenta 1.5
 62
   219
420
  6562149
160
               844
310
4C0300001F0000000C00000016000000652164C20C00000033000000000000000C00000013000000993A00000C00000016000000652164C2BC000000260000004D84DAB22AB98C40815221520A4E90401CA16530391B69C000000000000000000000000000000000000000000000F03F075C143326A6913C000000000000F0
310
3F000000000000000050003200310034003000000005000000010000000000000000002040000000000000F03F0000000000000000000000000000F03F00000000000000000000000000000000000000000000000000000000010000002200000041007200690061006C00000000000000000000000C000000330000000000
310
00000C00000010000000060000000C00000016000000652164C20C00000012000000FF7F00000C00000013000000010000000C00000014000000010000005400000007000000030000002DEE350FC9258C40008E9FD1660B8F401CA16530391B69C031A959FEC6E18B40F1B8603B56CB8E401CA16530391B69C0BA2F92DD54
310
0D8C40965AF8CEFE1D8F401CA16530391B69C00C00000013000000891300003C0000000600000002000000F40E64F68E198C404BF44BD0B2148F401CA16530391B69C0310DB35773998C40F170C9F7E5BC8F401CA16530391B69C00C00000013000000112700003C0000000600000002000000310DB35773998C40F170C9F7
310
E5BC8F401CA16530391B69C0310DB35773998C4078B8E4FB723A90401CA16530391B69C00C00000016000000652164C20C00000012000000FF7F00000C00000017000000000000000C000000130000009A3A00000C00000016000000652164C20C00000012000000FF7F00000C00000017000000FFFFFFFF0C000000330000
310
00000000000C00000033000000000000000C00000010000000060000000C00000016000000652164C28400000006000000050000002B83A729D34A8C4071B8E4FB723A90401CA16530391B69C02B83A729D34A8C402C8C810A35E490401CA16530391B69C0B250109456E88C402C8C810A35E490401CA16530391B69C0B250
310
109456E88C4071B8E4FB723A90401CA16530391B69C02B83A729D34A8C4071B8E4FB723A90401CA16530391B69C00C0000000E000000DB0000000C00000017000000FFFFFFFF0C0000003300000000000000
100
AcDbMLeader
270
     2
300
CONTEXT_DATA{
 40
64.0
 10
915.1813196171188
 20
1038.612289022216
 30
-200.8507310852955
 41
8.0
140
11.52
145
5.759999999999999
174
     1
175
     1
176
     0
177
     0
290
     1
304
P2140
 11
0.0
 21
0.0
 31
1.0
340
11
 12
911.1131067931083
 22
1044.372289022214
 32
-200.8507310852955
 13
0.0000000000000001
 23
1.0
 33
0.0
 42
1.570796326794896
 43
0.0
 44
0.0
 45
1.0
170
     1
 90
-1033625243
171
     1
172
     5
 91
-1073741824
141
0.0
 92
        0
291
     0
292
     0
173
     0
293
     0
142
0.0
143
0.0
294
     0
295
     0
296
     0
110
-5224.306065490813
120
-3102.704911448965
130
-200.8507310852955
111
0.0000000000000001
121
1.0
131
0.0
112
-1.0
122
0.0000000000000001
132
0.0
297
     0
302
LEADER{
290
     1
291
     1
 10
915.1813196171188
 20
1015.612289022216
 30
-200.8507310852955
 11
0.0000000000000001
 21
1.0
 31
0.0
 90
        0
 40
23.0
304
LEADER_LINE{
 10
892.2221648220785
 20
985.4171054417076
 30
-200.8507310852955
 91
        0
305
}
271
     0
303
}
272
     9
273
     9
301
}
340
A27
 90
 17171456
170
     1
 91
-1073741824
341
14
171
    -2
290
     1
291
     1
 41
0.359375
 42
0.18
172
     2
343
11
173
     1
 95
        1
174
     1
175
     0
 92
-1073741824
292
     1
 93
-1056964608
 10
1.0
 20
1.0
 30
1.0
 43
0.0
176
     0
293
     0
294
     0
178
     0
179
     1
 45
64.0
271
     0
272
     9
273
     9
295
     0
1001
ACAD_MLEADERVER
1070
     2
  0
MULTILEADER
  5
CCB
330
1F
100
AcDbEntity
  8
Dims Magenta 1.5
 62
   219
420
  6562149
160
              1000
310
E8030000240000000C00000016000000652164C20C00000033000000000000000C00000013000000993A00000C00000016000000FFFFFFC20C00000014000000010000006C0000000700000004000000B7FDB778DB3F8C4010FBD4C0B4C394401CA16530391B69C0B7FDB778DB3F8C40617EFDBCBB5F95401CA16530391B69
310
C0E23B5EED35C18C40617EFDBCBB5F95401CA16530391B69C0E23B5EED35C18C4010FBD4C0B4C394401CA16530391B69C00C00000016000000652164C20C00000014000000010000000C00000016000000652164C2BC000000260000002BB709871EA08C4049F1A0D941D094401CA16530391B69C000000000000000000000
310
000000000000000000000000F03F075C143326A6913C000000000000F03F000000000000000050003200310034003500000005000000010000000000000000002040000000000000F03F0000000000000000000000000000F03F00000000000000000000000000000000000000000000000000000000010000002200000041
310
007200690061006C00000000000000000000000C00000033000000000000000C00000010000000060000000C00000016000000652164C20C00000012000000FF7F00000C00000013000000010000000C00000014000000010000005400000007000000030000003A2361FAC12F8C4027F0BB2C2E3D94401CA16530391B69C0
310
33ABFF2E2FDA8B4038AD129A6D2A94401CA16530391B69C09F821EF1F71E8C401B4C31230B4A94401CA16530391B69C00C00000013000000891300003C0000000600000002000000EDD2BFF55C278C40219EF6A79C4394401CA16530391B69C01340E22B67808C4038576483AA6094401CA16530391B69C00C000000130000
310
00112700003C00000006000000020000001340E22B67808C4038576483AA6094401CA16530391B69C01340E22B67808C4038576483AABC94401CA16530391B69C00C00000016000000652164C20C00000012000000FF7F00000C00000017000000000000000C000000130000009A3A00000C00000016000000652164C20C00
310
000012000000FF7F00000C00000017000000FFFFFFFF0C00000033000000000000000C00000033000000000000000C00000010000000060000000C00000016000000652164C284000000060000000500000009B6D6FDC6318C4039576483AABC94401CA16530391B69C009B6D6FDC6318C4038226EFAC56695401CA1653039
310
1B69C090833F684ACF8C4038226EFAC56695401CA16530391B69C090833F684ACF8C4039576483AABC94401CA16530391B69C009B6D6FDC6318C4039576483AABC94401CA16530391B69C00C0000000E000000DB0000000C00000017000000FFFFFFFF0C0000003300000000000000
100
AcDbMLeader
270
     2
300
CONTEXT_DATA{
 40
64.0
 10
912.0503766704372
 20
1327.166516845535
 30
-200.8507310852955
 41
8.0
140
11.52
145
5.759999999999999
174
     1
175
     1
176
     0
177
     0
290
     1
304
P2145
 11
0.0
 21
0.0
 31
1.0
340
11
 12
907.9821638464263
 22
1332.926516845535
 32
-200.8507310852955
 13
0.0000000000000001
 23
1.0
 33
0.0
 42
1.570796326794896
 43
0.0
 44
0.0
 45
1.0
170
     1
 90
-1033625243
171
     1
172
     5
 91
-1027028792
141
1.5
 92
        0
291
     1
292
     1
173
     0
293
     0
142
0.0
143
0.0
294
     0
295
     0
296
     0
110
-5224.647715326103
120
-2991.13309305806
130
-200.8507310852955
111
0.0000000000000001
121
1.0
131
0.0
112
-1.0
122
0.0000000000000001
132
0.0
297
     0
302
LEADER{
290
     1
291
     1
 10
912.0503766704372
 20
1304.166516845534
 30
-200.8507310852955
 11
0.0000000000000001
 21
1.0
 31
0.0
 90
        0
 40
23.0
304
LEADER_LINE{
 10
891.2730388616678
 20
1290.607033054182
 30
-200.8507310852955
 91
        0
305
}
271
     0
303
}
272
     9
273
     9
301
}
340
A27
 90
 17171456
170
     1
 91
-1073741824
341
14
171
    -2
290
     1
291
     1
 41
0.359375
 42
0.18
172
     2
343
11
173
     1
 95
        1
174
     1
175
     0
 92
-1073741824
292
     1
 93
-1056964608
 10
1.0
 20
1.0
 30
1.0
 43
0.0
176
     0
293
     0
294
     0
178
     0
179
     1
 45
64.0
271
     0
272
     9
273
     9
295
     0
1001
ACAD_MLEADERVER
1070
     2
  0
MULTILEADER
  5
CCC
330
1F
100
AcDbEntity
  8
Dims Green 1.5
 62
   116
420
  1271604
160
               844
310
4C0300001F0000000C00000016000000346713C20C00000033000000000000000C00000013000000993A00000C00000016000000346713C2BC000000260000002615FF3ADD9A2D40024628149B2C7CC01CA16530391B69C000000000000000000000000000000000000000000000F03F075C143326A6913C000000000000F0
310
3F000000000000000050003300310030003500000005000000010000000000000000002040000000000000F03F0000000000000000000000000000F03F00000000000000000000000000000000000000000000000000000000010000002200000041007200690061006C00000000000000000000000C000000330000000000
310
00000C00000010000000040000000C00000016000000346713C20C00000012000000FF7F00000C00000013000000010000000C00000014000000010000005400000007000000030000005E3A37083D1B3340C285481994DD77C01CA16530391B69C020164CFC66943D401E12A882E48A77C01CA16530391B69C0A482F5293D
310
59354095F9AEF8740F78C01CA16530391B69C00C00000013000000891300003C0000000600000002000000825E16193D3A3440ABBFFB8884F677C01CA16530391B69C0402CD5126CAE25401E82F3908A6278C01CA16530391B69C00C00000013000000112700003C0000000600000002000000402CD5126CAE25401E82F390
310
8A6278C01CA16530391B69C03F2CD5126CAE25401E82F3908AD279C01CA16530391B69C00C00000016000000346713C20C00000012000000FF7F00000C00000017000000000000000C000000130000009A3A00000C00000016000000346713C20C00000012000000FF7F00000C00000017000000FFFFFFFF0C000000330000
310
00000000000C00000033000000000000000C00000010000000040000000C00000016000000346713C2840000000600000005000000CE65F671D727F03F40AE1A6DF87A7CC01CA16530391B69C0DA65F671D727F03F4282F3908AD279C01CA16530391B69C04AF4EC6550B434404282F3908AD279C01CA16530391B69C049F4
310
EC6550B4344040AE1A6DF87A7CC01CA16530391B69C0CE65F671D727F03F40AE1A6DF87A7CC01CA16530391B69C00C0000000E000000740000000C00000017000000FFFFFFFF0C0000003300000000000000
100
AcDbMLeader
270
     2
300
CONTEXT_DATA{
 40
64.0
 10
10.84066828586776
 20
-455.6856509248916
 30
-200.8507310852955
 41
8.0
140
11.52
145
5.759999999999999
174
     1
175
     1
176
     2
177
     0
290
     1
304
P3105
 11
0.0
 21
0.0
 31
1.0
340
11
 12
6.769726948896391
 22
-418.9188296424926
 32
-200.8507310852955
 13
0.0000000000000001
 23
1.0
 33
0.0
 42
1.570796326794896
 43
0.0
 44
0.0
 45
1.0
170
     1
 90
-1038915788
171
     3
172
     5
 91
-1073741824
141
0.0
 92
        0
291
     0
292
     0
173
     0
293
     0
142
0.0
143
0.0
294
     0
295
     0
296
     0
110
-5211.128992589199
120
-3085.577683353362
130
-200.8507310852955
111
0.0000000000000001
121
1.0
131
0.0
112
-1.0
122
0.0000000000000001
132
0.0
297
     0
302
LEADER{
290
     1
291
     1
 10
10.84066828586776
 20
-390.1588296424906
 30
-200.8507310852955
 11
-0.0000000000000001
 21
-1.0
 31
0.0
 90
        0
 40
23.0
304
LEADER_LINE{
 10
29.57969643457011
 20
-376.6807886662736
 30
-200.8507310852955
 91
        0
305
}
271
     0
303
}
272
     9
273
     9
301
}
340
A27
 90
 84296704
170
     1
 91
-1073741824
341
14
171
    -2
290
     1
291
     1
 41
0.359375
 42
0.18
172
     2
343
11
173
     1
 95
        1
174
     1
175
     0
 92
-1073741824
292
     1
 93
-1056964608
 10
1.0
 20
1.0
 30
1.0
 43
0.0
176
     0
293
     0
294
     0
178
     0
179
     3
 45
64.0
271
     0
272
     9
273
     9
295
     0
1001
ACAD_MLEADERVER
1070
     2
  0
MULTILEADER
  5
CCD
330
1F
100
AcDbEntity
  8
Dims Green 1.5
 62
   116
420
  1271604
160
               844
310
4C0300001F0000000C00000016000000346713C20C00000033000000000000000C00000013000000993A00000C00000016000000346713C2BC000000260000007054D1042EE0E73F041A12076B7270401CA16530391B69C000000000000000000000000000000000000000000000F03F075C143326A6913C000000000000F0
310
3F000000000000000050003300310030003000000005000000010000000000000000002040000000000000F03F0000000000000000000000000000F03F00000000000000000000000000000000000000000000000000000000010000002200000041007200690061006C00000000000000000000000C000000330000000000
310
00000C00000010000000040000000C00000016000000346713C20C00000012000000FF7F00000C00000013000000010000000C0000001400000001000000540000000700000003000000B16B6DF850843540FEC4C848EE626B401CA16530391B69C0301626D0F9933D40C423962582546A401CA16530391B69C0B21EED9A3A
310
36334049BC83C8A6006B401CA16530391B69C00C00000013000000891300003C00000006000000020000003245ADC9455D3440A440A688CA316B401CA16530391B69C0804E731FB9B909C0C4633F5C1B686D401CA16530391B69C00C00000013000000112700003C0000000600000002000000804E731FB9B909C0C4633F5C
310
1B686D401CA16530391B69C07D4E731FB9B909C0E2B11FAE0D2470401CA16530391B69C00C00000016000000346713C20C00000012000000FF7F00000C00000017000000000000000C000000130000009A3A00000C00000016000000346713C20C00000012000000FF7F00000C00000017000000FFFFFFFF0C000000330000
310
00000000000C00000033000000000000000C00000010000000040000000C00000016000000346713C28400000006000000050000002533736CDF172AC0C6B11FAE0D2470401CA16530391B69C02433736CDF172AC0B10093E815CB72401CA16530391B69C068D14FE28C971A40B10093E815CB72401CA16530391B69C066D1
310
4FE28C971A40C6B11FAE0D2470401CA16530391B69C02533736CDF172AC0C6B11FAE0D2470401CA16530391B69C00C0000000E000000740000000C00000017000000FFFFFFFF0C0000003300000000000000
100
AcDbMLeader
270
     2
300
CONTEXT_DATA{
 40
64.0
 10
-3.215685125070932
 20
258.2533398855286
 30
-200.8507310852955
 41
8.0
140
11.52
145
5.759999999999999
174
     1
175
     1
176
     0
177
     0
290
     1
304
P3100
 11
0.0
 21
0.0
 31
1.0
340
11
 12
-7.286626462042306
 22
264.013339885527
 32
-200.8507310852955
 13
0.0000000000000001
 23
1.0
 33
0.0
 42
1.570796326794896
 43
0.0
 44
0.0
 45
1.0
170
     1
 90
-1038915788
171
     1
172
     5
 91
-1073741824
141
0.0
 92
        0
291
     0
292
     0
173
     0
293
     0
142
0.0
143
0.0
294
     0
295
     0
296
     0
110
-5211.128992589199
120
-3102.704911448965
130
-200.8507310852955
111
0.0000000000000001
121
1.0
131
0.0
112
-1.0
122
0.0000000000000001
132
0.0
297
     0
302
LEADER{
290
     1
291
     1
 10
-3.215685125070933
 20
235.2533398855286
 30
-200.8507310852955
 11
0.0000000000000001
 21
1.0
 31
0.0
 90
        0
 40
23.0
304
LEADER_LINE{
 10
29.57803059511042
 20
210.6408870632569
 30
-200.8507310852955
 91
        0
305
}
271
     0
303
}
272
     9
273
     9
301
}
340
A27
 90
 17171456
170
     1
 91
-1073741824
341
14
171
    -2
290
     1
291
     1
 41
0.359375
 42
0.18
172
     2
343
11
173
     1
 95
        1
174
     1
175
     0
 92
-1073741824
292
     1
 93
-1056964608
 10
1.0
 20
1.0
 30
1.0
 43
0.0
176
     0
293
     0
294
     0
178
     0
179
     1
 45
64.0
271
     0
272
     9
273
     9
295
     0
1001
ACAD_MLEADERVER
1070
     2
  0
MULTILEADER
  5
CCE
330
1F
100
AcDbEntity
  8
Dims Green 1.5
 62
   116
420
  1271604
160
               844
310
4C0300001F0000000C00000016000000346713C20C00000033000000000000000C00000013000000993A00000C00000016000000346713C2BC00000026000000B49E5257D5243940023B75B6876289401CA16530391B69C000000000000000000000000000000000000000000000F03F075C143326A6913C000000000000F0
310
3F000000000000000050003300300039003500000005000000010000000000000000002040000000000000F03F0000000000000000000000000000F03F00000000000000000000000000000000000000000000000000000000010000002200000041007200690061006C00000000000000000000000C000000330000000000
310
00000C00000010000000040000000C00000016000000346713C20C00000012000000FF7F00000C00000013000000010000000C0000001400000001000000540000000700000003000000D0B2039569954040C4AF3E37343E88401CA16530391B69C0208B7027C91E4440F110DF72DBF387401CA16530391B69C0B10C71B91A
310
893E40CBA29B43D52788401CA16530391B69C00C00000013000000891300003C00000006000000020000002839BCF1F6D93F4047296DBD043388401CA16530391B69C040AA3DC39C2E3540F106FC09598388401CA16530391B69C00C00000013000000112700003C000000060000000200000040AA3DC39C2E3540F106FC09
310
598388401CA16530391B69C040AA3DC39C2E3540F106FC09593B89401CA16530391B69C00C00000016000000346713C20C00000012000000FF7F00000C00000017000000000000000C000000130000009A3A00000C00000016000000346713C20C00000012000000FF7F00000C00000017000000FFFFFFFF0C000000330000
310
00000000000C00000033000000000000000C00000010000000040000000C00000016000000346713C2840000000600000005000000FBF4E461C8B32640E306FC09593B89401CA16530391B69C0FCF4E461C8B32640E29C0FF88F8F8A401CA16530391B69C06A08C01FB70B3F40E29C0FF88F8F8A401CA16530391B69C06A08
310
C01FB70B3F40E306FC09593B89401CA16530391B69C0FBF4E461C8B32640E306FC09593B89401CA16530391B69C00C0000000E000000740000000C00000017000000FFFFFFFF0C0000003300000000000000
100
AcDbMLeader
270
     2
300
CONTEXT_DATA{
 40
64.0
 10
21.18207950835699
 20
807.4184760751361
 30
-200.8507310852955
 41
8.0
140
11.52
145
5.759999999999999
174
     1
175
     1
176
     0
177
     0
290
     1
304
P3095
 11
0.0
 21
0.0
 31
1.0
340
11
 12
17.11113817138562
 22
813.1784760751344
 32
-200.8507310852955
 13
0.0000000000000001
 23
1.0
 33
0.0
 42
1.570796326794896
 43
0.0
 44
0.0
 45
1.0
170
     1
 90
-1038915788
171
     1
172
     5
 91
-1073741824
141
0.0
 92
        0
291
     0
292
     0
173
     0
293
     0
142
0.0
143
0.0
294
     0
295
     0
296
     0
110
-5211.128992589199
120
-3102.704911448965
130
-200.8507310852955
111
0.0000000000000001
121
1.0
131
0.0
112
-1.0
122
0.0000000000000001
132
0.0
297
     0
302
LEADER{
290
     1
291
     1
 10
21.18207950835699
 20
784.418476075136
 30
-200.8507310852955
 11
0.0000000000000001
 21
1.0
 31
0.0
 90
        0
 40
23.0
304
LEADER_LINE{
 10
40.24051373477255
 20
766.4821526934666
 30
-200.8507310852955
 91
        0
305
}
271
     0
303
}
272
     9
273
     9
301
}
340
A27
 90
 17171456
170
     1
 91
-1073741824
341
14
171
    -2
290
     1
291
     1
 41
0.359375
 42
0.18
172
     2
343
11
173
     1
 95
        1
174
     1
175
     0
 92
-1073741824
292
     1
 93
-1056964608
 10
1.0
 20
1.0
 30
1.0
 43
0.0
176
     0
293
     0
294
     0
178
     0
179
     1
 45
64.0
271
     0
272
     9
273
     9
295
     0
1001
ACAD_MLEADERVER
1070
     2
  0
MULTILEADER
  5
CCF
330
1F
100
AcDbEntity
  8
Dims Green 1.5
 62
   116
420
  1271604
160
               844
310
4C0300001F0000000C00000016000000346713C20C00000033000000000000000C00000013000000993A00000C00000016000000346713C2BC00000026000000AB400787B56C7A40020DC8B8E7F089401CA16530391B69C000000000000000000000000000000000000000000000F03F075C143326A6913C000000000000F0
310
3F000000000000000050003300300039003000000005000000010000000000000000002040000000000000F03F0000000000000000000000000000F03F00000000000000000000000000000000000000000000000000000000010000002200000041007200690061006C00000000000000000000000C000000330000000000
310
00000C00000010000000040000000C00000016000000346713C20C00000012000000FF7F00000C00000013000000010000000C0000001400000001000000540000000700000003000000590E9C61FAB87840DBC40220316488401CA16530391B69C064B1C1AF41177840F1E8106B623588401CA16530391B69C09FD476F0DF
310
91784034BA8E09E37B88401CA16530391B69C00C00000013000000891300003C00000006000000020000007C7109296DA5784088BFC8140A7088401CA16530391B69C064F1C5FD512D7A40F1D84E0CB91189401CA16530391B69C00C00000013000000112700003C000000060000000200000064F1C5FD512D7A40F1D84E0C
310
B91189401CA16530391B69C064F1C5FD512D7A40F1D84E0CB9C989401CA16530391B69C00C00000016000000346713C20C00000012000000FF7F00000C00000017000000000000000C000000130000009A3A00000C00000016000000346713C20C00000012000000FF7F00000C00000017000000FFFFFFFF0C000000330000
310
00000000000C00000033000000000000000C00000010000000040000000C00000016000000346713C2840000000600000005000000683EA17406907940E3D84E0CB9C989401CA16530391B69C0683EA17406907940588088293D1D8B401CA16530391B69C047178EA323CB7A40588088293D1D8B401CA16530391B69C04717
310
8EA323CB7A40E3D84E0CB9C989401CA16530391B69C0683EA17406907940E3D84E0CB9C989401CA16530391B69C00C0000000E000000740000000C00000017000000FFFFFFFF0C0000003300000000000000
100
AcDbMLeader
270
     2
300
CONTEXT_DATA{
 40
64.0
 10
418.8325174076219
 20
825.2153555068927
 30
-200.8507310852955
 41
8.0
140
11.52
145
5.759999999999999
174
     1
175
     1
176
     0
177
     0
290
     1
304
P3090
 11
0.0
 21
0.0
 31
1.0
340
11
 12
414.7615760706505
 22
830.975355506891
 32
-200.8507310852955
 13
0.0000000000000001
 23
1.0
 33
0.0
 42
1.570796326794896
 43
0.0
 44
0.0
 45
1.0
170
     1
 90
-1038915788
171
     1
172
     5
 91
-1073741824
141
0.0
 92
        0
291
     0
292
     0
173
     0
293
     0
142
0.0
143
0.0
294
     0
295
     0
296
     0
110
-5211.128992589199
120
-3102.704911448965
130
-200.8507310852955
111
0.0000000000000001
121
1.0
131
0.0
112
-1.0
122
0.0000000000000001
132
0.0
297
     0
302
LEADER{
290
     1
291
     1
 10
418.8325174076219
 20
802.2153555068927
 30
-200.8507310852955
 11
0.0000000000000001
 21
1.0
 31
0.0
 90
        0
 40
23.0
304
LEADER_LINE{
 10
385.4535367551928
 20
774.6730557747924
 30
-200.8507310852955
 91
        0
305
}
271
     0
303
}
272
     9
273
     9
301
}
340
A27
 90
 17171456
170
     1
 91
-1073741824
341
14
171
    -2
290
     1
291
     1
 41
0.359375
 42
0.18
172
     2
343
11
173
     1
 95
        1
174
     1
175
     0
 92
-1073741824
292
     1
 93
-1056964608
 10
1.0
 20
1.0
 30
1.0
 43
0.0
176
     0
293
     0
294
     0
178
     0
179
     1
 45
64.0
271
     0
272
     9
273
     9
295
     0
1001
ACAD_MLEADERVER
1070
     2
  0
MULTILEADER
  5
CD0
330
1F
100
AcDbEntity
  8
Dims Green 1.5
 62
   116
420
  1271604
160
               844
310
4C0300001F0000000C00000016000000346713C20C00000033000000000000000C00000013000000993A00000C00000016000000346713C2BC00000026000000562840674EC2894002E57ACB0DE089401CA16530391B69C000000000000000000000000000000000000000000000F03F075C143326A6913C000000000000F0
310
3F000000000000000050003300300038003500000005000000010000000000000000002040000000000000F03F0000000000000000000000000000F03F00000000000000000000000000000000000000000000000000000000010000002200000041007200690061006C00000000000000000000000C000000330000000000
310
00000C00000010000000040000000C00000016000000346713C20C00000012000000FF7F00000C00000013000000010000000C0000001400000001000000540000000700000003000000D4ACC1968D3F8A401C95F527557488401CA16530391B69C0B27479677D748A40F188B353582788401CA16530391B69C0A20D171172
310
298A40F43771A1005F88401CA16530391B69C00C00000013000000891300003C00000006000000020000003B5DECD37F348A408866B3E4AA6988401CA16530391B69C0B2809FA29CA28940F1B0011FDF0089401CA16530391B69C00C00000013000000112700003C0000000600000002000000B2809FA29CA28940F1B0011F
310
DF0089401CA16530391B69C0B2809FA29CA28940F1B0011FDFB889401CA16530391B69C00C00000016000000346713C20C00000012000000FF7F00000C00000017000000000000000C000000130000009A3A00000C00000016000000346713C20C00000012000000FF7F00000C00000017000000FFFFFFFF0C000000330000
310
00000000000C00000033000000000000000C00000010000000040000000C00000016000000346713C284000000060000000500000034270DDEF6538940E3B0011FDFB889401CA16530391B69C034270DDEF6538940E246150D160D8B401CA16530391B69C0A393837585F18940E246150D160D8B401CA16530391B69C0A393
310
837585F18940E3B0011FDFB889401CA16530391B69C034270DDEF6538940E3B0011FDFB889401CA16530391B69C00C0000000E000000740000000C00000017000000FFFFFFFF0C0000003300000000000000
100
AcDbMLeader
270
     2
300
CONTEXT_DATA{
 40
64.0
 10
820.3264820538663
 20
823.1089458591579
 30
-200.8507310852955
 41
8.0
140
11.52
145
5.759999999999999
174
     1
175
     1
176
     0
177
     0
290
     1
304
P3085
 11
0.0
 21
0.0
 31
1.0
340
11
 12
816.255540716895
 22
828.8689458591562
 32
-200.8507310852955
 13
0.0000000000000001
 23
1.0
 33
0.0
 42
1.570796326794896
 43
0.0
 44
0.0
 45
1.0
170
     1
 90
-1038915788
171
     1
172
     5
 91
-1073741824
141
0.0
 92
        0
291
     0
292
     0
173
     0
293
     0
142
0.0
143
0.0
294
     0
295
     0
296
     0
110
-5211.128992589199
120
-3102.704911448965
130
-200.8507310852955
111
0.0000000000000001
121
1.0
131
0.0
112
-1.0
122
0.0000000000000001
132
0.0
297
     0
302
LEADER{
290
     1
291
     1
 10
820.3264820538663
 20
800.1089458591579
 30
-200.8507310852955
 11
0.0000000000000001
 21
1.0
 31
0.0
 90
        0
 40
23.0
304
LEADER_LINE{
 10
846.5612325180757
 20
772.9181283975759
 30
-200.8507310852955
 91
        0
305
}
271
     0
303
}
272
     9
273
     9
301
}
340
A27
 90
 17171456
170
     1
 91
-1073741824
341
14
171
    -2
290
     1
291
     1
 41
0.359375
 42
0.18
172
     2
343
11
173
     1
 95
        1
174
     1
175
     0
 92
-1073741824
292
     1
 93
-1056964608
 10
1.0
 20
1.0
 30
1.0
 43
0.0
176
     0
293
     0
294
     0
178
     0
179
     1
 45
64.0
271
     0
272
     9
273
     9
295
     0
1001
ACAD_MLEADERVER
1070
     2
  0
LWPOLYLINE
  5
CD1
330
1F
100
AcDbEntity
  8
Conv Magenta 1.5
 62
     1
100
AcDbPolyline
 90
        4
 70
     1
 43
0.0
 38
-200.8507310852954
 10
134.6472882363034
 20
786.0302662992891
 10
134.6472882363034
 20
834.0302662992892
 10
122.6472882363034
 20
834.0302662992892
 10
122.6472882363034
 20
786.0302662992891
  0
MULTILEADER
  5
CD2
330
1F
100
AcDbEntity
  8
Dims Magenta 1.5
 62
     1
160
              1532
310
FC050000200000000C00000016000000010000C30C00000033000000000000000C00000013000000993A00000C00000016000000010000C3BC000000260000008B8BA32039636440F25BBC4E1E6C8B401CA16530391B69C000000000000000000000000000000000000000000000F03F075C143326A6913C000000000000F0
310
3F0000000000000000430043002D0030003600000005000000010000000000000000002040000000000000F03F0000000000000000000000000000F03F00000000000000000000000000000000000000000000000000000000010000002200000041007200690061006C00000000000000000000000C000000160000000100
310
00C3D4000000260000001249A0644112664002E19BCF796E8B401CA16530391B69C000000000000000000000000000000000000000000000F03F075C143326A6913C000000000000F03F000000000000000054006F002F00460072006F006D00200042006C0064006700200031002E00350000006E00100000000100000000
310
00000000002040000000000000F03F0000000000000000000000000000F03F00000000000000000000000000000000000000000000000000000000010000002200000041007200690061006C00000000000000000000000C00000016000000010000C3CC0000002600000099069DA849C1674084521382EF698B401CA16530
310
391B69C000000000000000000000000000000000000000000000F03F075C143326A6913C000000000000F03F00000000000000004D006100670065006E00740061002F0047007200650065006E0000000D000000010000000000000000002040000000000000F03F0000000000000000000000000000F03F00000000000000
310
000000000000000000000000000000000000000000010000002200000041007200690061006C00000000000000000000000C00000016000000010000C3D00000002600000020C499EC51706940FF88C7AE6F6F8B401CA16530391B69C000000000000000000000000000000000000000000000F03F075C143326A6913C0000
310
00000000F03F00000000000000003400380030002000560041004300200035003000200041006D007000000000000E000000010000000000000000002040000000000000F03F0000000000000000000000000000F03F0000000000000000000000000000000000000000000000000000000001000000220000004100720069
310
0061006C00000000000000000000000C00000016000000010000C3DC00000026000000A78196305A1F6B40F25BBC4E1E6C8B401CA16530391B69C000000000000000000000000000000000000000000000F03F075C143326A6913C000000000000F03F000000000000000043006F006D007000720065007300730065006400
310
200041006900720020004E0065006500640065006400000015000000010000000000000000002040000000000000F03F0000000000000000000000000000F03F00000000000000000000000000000000000000000000000000000000010000002200000041007200690061006C00000000000000000035000C000000330000
310
00000000000C00000010000000060000000C00000016000000010000C30C00000012000000FF7F00000C00000013000000010000000C00000014000000010000005400000007000000030000003B5B26A35F536140676137880EE189401CA16530391B69C048C0D195B6146040F1EC41FC3DB089401CA16530391B69C0B815
310
A554D2026140C0600E6641F889401CA16530391B69C00C00000013000000891300003C000000060000000200000079B8E5FB182B614013E122F7A7EC89401CA16530391B69C048C0A0C864026440F16448C77D8A8A401CA16530391B69C00C00000013000000112700003C000000060000000200000048C0A0C864026440F1
310
6448C77D8A8A401CA16530391B69C048C0A0C864026440F16448C77D428B401CA16530391B69C00C00000016000000010000C30C00000012000000FF7F00000C00000017000000000000000C000000130000009A3A00000C00000016000000010000C30C00000012000000FF7F00000C00000017000000FFFFFFFF0C000000
310
3300000000000000
100
AcDbMLeader
270
     2
300
CONTEXT_DATA{
 40
64.0
 10
160.0748026981039
 20
872.3114152580075
 30
-200.8507310852955
 41
8.0
140
11.52
145
5.759999999999999
174
     1
175
     1
176
     0
177
     0
290
     1
304
CC-06\PTo/From Bldg 1.5\PMagenta/Green\P480 VAC 50 Amp\PCompressed Air Needed
 11
0.0
 21
0.0
 31
1.0
340
11
 12
154.9642979232062
 22
878.0714152580074
 32
-200.8507310852955
 13
0.0000000000000001
 23
1.0
 33
0.0
 42
1.570796326794896
 43
0.0
 44
0.0
 45
1.0
170
     1
 90
-1023410175
171
     1
172
     5
 91
-1073741824
141
0.0
 92
        0
291
     0
292
     0
173
     0
293
     0
142
0.0
143
0.0
294
     0
295
     0
296
     0
110
128.6472882363034
120
822.0302662992891
130
-200.8507310852955
111
0.0000000000000001
121
1.0
131
0.0
112
-1.0
122
0.0000000000000001
132
0.0
297
     0
302
LEADER{
290
     1
291
     1
 10
160.0748026981039
 20
849.3114152580075
 30
-200.8507310852955
 11
0.0000000000000001
 21
1.0
 31
0.0
 90
        0
 40
23.0
304
LEADER_LINE{
 10
128.6472882363034
 20
822.0302662992891
 30
-200.8507310852955
 91
        0
305
}
271
     0
303
}
272
     9
273
     9
301
}
340
A27
 90
   279552
170
     1
 91
-1073741824
341
14
171
    -2
290
     1
291
     1
 41
0.359375
 42
0.18
172
     2
343
11
173
     1
 95
        1
174
     1
175
     0
 92
-1073741824
292
     0
 93
-1056964608
 10
1.0
 20
1.0
 30
1.0
 43
0.0
176
     0
293
     0
294
     0
178
     0
179
     1
 45
64.0
271
     0
272
     9
273
     9
295
     0
  0
ARC
  5
CD3
330
1F
100
AcDbEntity
  8
Conv Magenta 1.5
  6
CENTER2
100
AcDbCircle
 10
864.2877754639728
 20
1269.209595521401
 30
-200.8507310852954
 40
15.748031496063
100
AcDbArc
 50
90.0
 51
89.95640419857506
  0
ARC
  5
CD4
330
1F
100
AcDbEntity
  8
Conv Magenta 1.5
100
AcDbCircle
 10
864.2877754639728
 20
1269.209595521401
 30
-200.8507310852954
 40
12.99212598425197
100
AcDbArc
 50
90.0
 51
89.95640419857506
  0
ARC
  5
CD5
330
1F
100
AcDbEntity
  8
Conv Magenta 1.5
100
AcDbCircle
 10
864.2877754639728
 20
1269.209595521401
 30
-200.8507310852954
 40
18.50393700787402
100
AcDbArc
 50
90.0
 51
89.95640419857506
  0
ARC
  5
CD6
330
1F
100
AcDbEntity
  8
Conv Green 1.5
100
AcDbCircle
 10
864.2877754639728
 20
1269.209595521401
 30
-200.8507310852954
 40
21.50393700787402
100
AcDbArc
 50
90.0
 51
89.95640419857506
  0
ARC
  5
CD7
330
1F
100
AcDbEntity
  8
Conv Green 1.5
  6
CENTER2
100
AcDbCircle
 10
864.2877754639728
 20
1269.209595521401
 30
-200.8507310852954
 40
24.25984251968254
100
AcDbArc
 50
90.0
 51
89.95640419857506
  0
ARC
  5
CD8
330
1F
100
AcDbEntity
  8
Conv Green 1.5
100
AcDbCircle
 10
864.2877754639728
 20
1269.209595521401
 30
-200.8507310852954
 40
27.01574803149105
100
AcDbArc
 50
90.0
 51
89.95640419857506
  0
LWPOLYLINE
  5
CD9
330
1F
100
AcDbEntity
  8
Conv Green 1.5
100
AcDbPolyline
 90
        4
 70
     1
 43
0.0
 38
-200.8507310852954
 10
829.4411472718229
 20
1296.225348111585
 10
864.3041375989367
 20
1296.225348111585
 10
864.3041375989367
 20
1290.71352630438
 10
829.4411472718229
 20
1290.71352630438
  0
LWPOLYLINE
  5
CDA
330
1F
100
AcDbEntity
  8
Conv Green 1.5
100
AcDbPolyline
 90
        4
 70
     1
 43
0.0
 38
-200.8507310852954
 10
891.3035210314937
 20
1210.3684732985
 10
891.3035210314937
 20
1233.193233386437
 10
885.791710007872
 20
1233.193233386437
 10
885.791710007872
 20
1210.3684732985
  0
LWPOLYLINE
  5
CDB
330
1F
100
AcDbEntity
  8
Conv Green 1.5
  6
CENTER2
100
AcDbPolyline
 90
        2
 70
     0
 43
0.0
 38
-200.8507310852954
 10
829.4411472718229
 20
1293.469442599774
 10
864.3062345404349
 20
1293.469431018417
  0
LWPOLYLINE
  5
CDC
330
1F
100
AcDbEntity
  8
Conv Green 1.5
  6
CENTER2
100
AcDbPolyline
 90
        2
 70
     0
 43
0.0
 38
-200.8507310852954
 10
888.5476109609889
 20
1233.191136444939
 10
888.5476109609889
 20
1210.3684732985
  0
LWPOLYLINE
  5
CDD
330
1F
100
AcDbEntity
  8
Conv Magenta 1.5
100
AcDbPolyline
 90
        4
 70
     1
 43
0.0
 38
-200.8507310852954
 10
829.4531297946804
 20
1287.713543312858
 10
864.3161201217944
 20
1287.713543312858
 10
864.3161201217944
 20
1282.201721505652
 10
829.4531297946804
 20
1282.201721505652
  0
LWPOLYLINE
  5
CDE
330
1F
100
AcDbEntity
  8
Conv Magenta 1.5
100
AcDbPolyline
 90
        4
 70
     1
 43
0.0
 38
-200.8507310852954
 10
882.7917162327665
 20
1246.356490775643
 10
882.7917162327665
 20
1269.181250863579
 10
877.2799052091439
 20
1269.181250863579
 10
877.2799052091439
 20
1246.356490775643
  0
LWPOLYLINE
  5
CDF
330
1F
100
AcDbEntity
  8
Conv Magenta 1.5
  6
CENTER2
100
AcDbPolyline
 90
        2
 70
     0
 43
0.0
 38
-200.8507310852954
 10
829.4531297946804
 20
1284.957637801047
 10
864.3182170632925
 20
1284.95762621969
  0
LWPOLYLINE
  5
CE0
330
1F
100
AcDbEntity
  8
Conv Magenta 1.5
  6
CENTER2
100
AcDbPolyline
 90
        2
 70
     0
 43
0.0
 38
-200.8507310852954
 10
880.0358061622617
 20
1269.179153922081
 10
880.0358061622617
 20
1246.356490775643
  0
MTEXT
  5
CE8
330
1F
100
AcDbEntity
  8
Dims Green 1.5
 62
   116
420
  1271604
100
AcDbMText
 10
895.0173157598985
 20
1120.588770763219
 30
-200.8507310852955
 40
8.0
 41
52.7229879515944
 46
0.0
 71
     1
 72
     5
  1
EL 108"
 11
0.0000000000000001
 21
1.0
 31
0.0
 73
     1
 44
1.0
1001
ACAD
1000
ACAD_MTEXT_COLUMN_INFO_BEGIN
1070
    75
1070
     2
1070
    79
1070
     0
1070
    76
1070
     1
1070
    78
1070
     0
1070
    48
1040
52.7229879515944
1070
    49
1040
1.0
1070
    50
1070
     1
1040
0.0
1000
ACAD_MTEXT_COLUMN_INFO_END
  0
MTEXT
  5
CE9
330
1F
100
AcDbEntity
  8
Dims Magenta 1.5
 62
   219
420
  6562149
100
AcDbMText
 10
904.44504690503
 20
1121.110273755474
 30
-200.8507310852955
 40
8.0
 41
45.94705932267243
 46
0.0
 71
     1
 72
     5
  1
EL 124"
 11
0.0000000000000001
 21
1.0
 31
0.0
 73
     1
 44
1.0
1001
ACAD
1000
ACAD_MTEXT_COLUMN_INFO_BEGIN
1070
    75
1070
     2
1070
    79
1070
     0
1070
    76
1070
     1
1070
    78
1070
     0
1070
    48
1040
45.94705932267243
1070
    49
1040
1.0
1070
    50
1070
     1
1040
0.0
1000
ACAD_MTEXT_COLUMN_INFO_END
  0
LWPOLYLINE
  5
CEA
330
1F
100
AcDbEntity
  8
Conv Magenta 1.5
100
AcDbPolyline
 90
        4
 70
     1
 43
0.0
 38
-200.8507310852954
 10
882.826161902606
 20
1196.214580479793
 10
882.826161902606
 20
1246.356490775643
 10
877.3143508789987
 20
1246.356490775643
 10
877.3143508789988
 20
1196.214580479793
  0
MULTILEADER
  5
CEB
330
1F
100
AcDbEntity
  8
Dims Magenta 1.5
160
              1184
310
A00400001E0000000C00000016000000000000C00C00000033000000000000000C00000013000000993A00000C00000016000000FFFFFFC20C00000014000000010000006C0000000700000004000000CBC7CD63A89F8D40B04FF8C2BA8E924018A16530391B69C097E05AC08B398F40B04FF8C2BA8E924018A16530391B69
310
C097E05AC08B398F408150E700AFE1914018A16530391B69C0CBC7CD63A89F8D408150E700AFE1914018A16530391B69C00C00000016000000000000C00C0000001400000001000000C40000002600000034ACE832A4BB8D40540DCE0F2F5E924018A16530391B69C000000000000000000000000000000000000000000000
310
F03F000000000000F03F000000000000000000000000000000005300630061006E006E00650072002C000000000008000000010000000000000000002040000000000000F03F0000000000000000000000000000F03F0000000000000000000000000000000000000000000000000000000001000000220000004100720069
310
0061006C0000000000000000000000C40000002600000034ACE832A4BB8D40A4754E074E28924018A16530391B69C000000000000000000000000000000000000000000000F03F000000000000F03F00000000000000000000000000000000530074006F0070007000650072002C0000000000080000000100000000000000
310
00002040000000000000F03F0000000000000000000000000000F03F00000000000000000000000000000000000000000000000000000000010000002200000041007200690061006C0000000000000000000000C400000026000000D6271FE7D0BB8D40F2DDCEFE6CF2914018A16530391B69C00000000000000000000000
310
0000000000000000000000F03F000000000000F03F00000000000000000000000000000000260020004400690076006500720074000000000008000000010000000000000000002040000000000000F03F0000000000000000000000000000F03F000000000000000000000000000000000000000000000000000000000100
310
00002200000041007200690061006C00000000000000000000000C00000033000000000000000C00000010000000060000000C00000016000000000000C00C00000012000000FF7F00000C00000013000000010000000C0000001400000001000000540000000700000003000000BE2E102CA11A8C40B3774C7E8630924018
310
A16530391B69C02787C5FA9BC28B40483CFCBADB20924018A16530391B69C0CBC7F395B50B8C40B83501BAF33D924018A16530391B69C00C00000013000000891300003C000000060000000200000045FB01612B138C40B5D6261C3D37924018A16530391B69C01D80ECE893D98C40F68804C45B6E924018A16530391B69C0
310
0C00000013000000112700003C00000006000000020000001D80ECE893D98C40F68804C45B6E924018A16530391B69C01D80ECE893918D40F68804C45B6E924018A16530391B69C00C00000016000000000000C00C00000012000000FF7F00000C00000017000000000000000C000000130000009A3A00000C000000160000
310
00000000C00C00000012000000FF7F00000C00000017000000FFFFFFFF0C0000003300000000000000
100
AcDbMLeader
270
     2
300
CONTEXT_DATA{
 40
64.0
 10
946.1972216106984
 20
1179.589614935741
 30
-200.8507310852954
 41
8.0
140
11.52
145
5.759999999999999
174
     1
175
     1
176
     0
177
     0
290
     1
304
Scanner,\PStopper,\P& Divert
 11
0.0
 21
0.0
 31
1.0
340
11
 12
951.9572216106984
 22
1183.682384376396
 32
-200.8507310852954
 13
1.0
 23
0.0
 33
0.0
 42
0.0
 43
0.0
 44
0.0
 45
1.0
170
     1
 90
-1073741824
171
     1
172
     5
 91
-1027028792
141
1.5
 92
        0
291
     1
292
     1
173
     0
293
     0
142
0.0
143
0.0
294
     0
295
     0
296
     0
110
888.3261619026059
120
1160.214580479792
130
-200.8507310852954
111
1.0
121
0.0
131
0.0
112
0.0
122
1.0
132
0.0
297
     0
302
LEADER{
290
     1
291
     1
 10
923.1972216106983
 20
1179.589614935741
 30
-200.8507310852954
 11
1.0
 21
0.0
 31
0.0
 90
        0
 40
23.0
304
LEADER_LINE{
 10
888.3261619026059
 20
1160.214580479792
 30
-200.8507310852954
 91
        0
305
}
271
     0
303
}
272
     9
273
     9
301
}
340
A27
 90
   279552
170
     1
 91
-1073741824
341
14
171
    -2
290
     1
291
     1
 41
0.359375
 42
0.18
172
     2
343
11
173
     1
 95
        1
174
     1
175
     0
 92
-1073741824
292
     0
 93
-1056964608
 10
1.0
 20
1.0
 30
1.0
 43
0.0
176
     0
293
     0
294
     0
178
     0
179
     1
 45
64.0
271
     0
272
     9
273
     9
295
     0
  0
LWPOLYLINE
  5
CEC
330
1F
100
AcDbEntity
  8
Conv Magenta 1.5
100
AcDbPolyline
 90
        4
 70
     1
 43
0.0
 38
-200.8507310852954
 10
829.4531297946804
 20
1296.213543312858
 10
864.3161201217944
 20
1296.213543312858
 10
864.3161201217944
 20
1290.701721505653
 10
829.4531297946804
 20
1290.701721505653
  0
MULTILEADER
  5
CED
330
1F
100
AcDbEntity
  8
Dims Magenta 1.5
160
              1184
310
A00400001E0000000C00000016000000000000C00C00000033000000000000000C00000013000000993A00000C00000016000000FFFFFFC20C00000014000000010000006C00000007000000040000007B47481F20548C406C3715B3B98C944018A16530391B69C04760D57B03EE8D406C3715B3B98C944018A16530391B69
310
C04760D57B03EE8D403D3804F1ADDF934018A16530391B69C07B47481F20548C403D3804F1ADDF934018A16530391B69C00C00000016000000000000C00C0000001400000001000000C400000026000000E42B63EE1B708C4010F5EAFF2D5C944018A16530391B69C000000000000000000000000000000000000000000000
310
F03F000000000000F03F000000000000000000000000000000005300630061006E006E00650072002C000000000008000000010000000000000000002040000000000000F03F0000000000000000000000000000F03F0000000000000000000000000000000000000000000000000000000001000000220000004100720069
310
0061006C0000000000000000000000C400000026000000E42B63EE1B708C40605D6BF74C26944018A16530391B69C000000000000000000000000000000000000000000000F03F000000000000F03F00000000000000000000000000000000530074006F0070007000650072002C0000000000080000000100000000000000
310
00002040000000000000F03F0000000000000000000000000000F03F00000000000000000000000000000000000000000000000000000000010000002200000041007200690061006C0000000000000000000000C40000002600000086A799A248708C40AEC5EBEE6BF0934018A16530391B69C00000000000000000000000
310
0000000000000000000000F03F000000000000F03F00000000000000000000000000000000260020004400690076006500720074000000000008000000010000000000000000002040000000000000F03F0000000000000000000000000000F03F000000000000000000000000000000000000000000000000000000000100
310
00002200000041007200690061006C00000000000000000000000C00000033000000000000000C00000010000000060000000C00000016000000000000C00C00000012000000FF7F00000C00000013000000010000000C00000014000000010000005400000007000000030000006EAE8AE718CF8A40715F696E852E944018
310
A16530391B69C0D70640B613778A40062419ABDA1E944018A16530391B69C07B476E512DC08A40761D1EAAF23B944018A16530391B69C00C00000013000000891300003C0000000600000002000000F57A7C1CA3C78A4073BE430C3C35944018A16530391B69C0CDFF66A40B8E8B40B47021B45A6C944018A16530391B69C0
310
0C00000013000000112700003C0000000600000002000000CDFF66A40B8E8B40B47021B45A6C944018A16530391B69C0CDFF66A40B468C40B47021B45A6C944018A16530391B69C00C00000016000000000000C00C00000012000000FF7F00000C00000017000000000000000C000000130000009A3A00000C000000160000
310
00000000C00C00000012000000FF7F00000C00000017000000FFFFFFFF0C0000003300000000000000
100
AcDbMLeader
270
     2
300
CONTEXT_DATA{
 40
64.0
 10
904.7556846663297
 20
1307.088577768806
 30
-200.8507310852954
 41
8.0
140
11.52
145
5.759999999999999
174
     1
175
     1
176
     0
177
     0
290
     1
304
Scanner,\PStopper,\P& Divert
 11
0.0
 21
0.0
 31
1.0
340
11
 12
910.5156846663298
 22
1311.181347209461
 32
-200.8507310852954
 13
1.0
 23
0.0
 33
0.0
 42
0.0
 43
0.0
 44
0.0
 45
1.0
170
     1
 90
-1073741824
171
     1
172
     5
 91
-1027028792
141
1.5
 92
        0
291
     1
292
     1
173
     0
293
     0
142
0.0
143
0.0
294
     0
295
     0
296
     0
110
846.8846249582373
120
1287.713543312858
130
-200.8507310852954
111
1.0
121
0.0
131
0.0
112
0.0
122
1.0
132
0.0
297
     0
302
LEADER{
290
     1
291
     1
 10
881.7556846663297
 20
1307.088577768806
 30
-200.8507310852954
 11
1.0
 21
0.0
 31
0.0
 90
        0
 40
23.0
304
LEADER_LINE{
 10
846.8846249582373
 20
1287.713543312858
 30
-200.8507310852954
 91
        0
305
}
271
     0
303
}
272
     9
273
     9
301
}
340
A27
 90
   279552
170
     1
 91
-1073741824
341
14
171
    -2
290
     1
291
     1
 41
0.359375
 42
0.18
172
     2
343
11
173
     1
 95
        1
174
     1
175
     0
 92
-1073741824
292
     0
 93
-1056964608
 10
1.0
 20
1.0
 30
1.0
 43
0.0
176
     0
293
     0
294
     0
178
     0
179
     1
 45
64.0
271
     0
272
     9
273
     9
295
     0
  0
LINE
  5
D5D
330
1F
100
AcDbEntity
  8
Conv Magenta 1.5
100
AcDbLine
 10
885.8261556777145
 20
1419.829492127586
 30
-200.8507310852956
 11
885.8801091956955
 21
1616.226078205407
 31
-200.8507310852954
  0
LINE
  5
D5E
330
1F
100
AcDbEntity
  8
Conv Magenta 1.5
100
AcDbLine
 10
891.3379667013371
 20
1419.829492127586
 30
-200.8507310852956
 11
891.3724152989333
 21
1616.226078205407
 31
-200.8507310852954
  0
ARC
  5
D5F
330
1F
100
AcDbEntity
  8
Conv Magenta 1.5
  6
CENTER2
100
AcDbCircle
 10
872.8684745301396
 20
1639.079182951166
 30
-200.8507310852955
 40
15.748031496063
100
AcDbArc
 50
90.0
 51
89.95640419857506
  0
ARC
  5
D60
330
1F
100
AcDbEntity
  8
Conv Magenta 1.5
100
AcDbCircle
 10
872.8684745301396
 20
1639.079182951166
 30
-200.8507310852955
 40
12.99212598425197
100
AcDbArc
 50
90.0
 51
89.95640419857506
  0
ARC
  5
D61
330
1F
100
AcDbEntity
  8
Conv Magenta 1.5
100
AcDbCircle
 10
872.8684745301396
 20
1639.079182951166
 30
-200.8507310852955
 40
18.50393700787402
100
AcDbArc
 50
90.0
 51
89.95640419857506
  0
LWPOLYLINE
  5
D62
330
1F
100
AcDbEntity
  8
Conv Magenta 1.5
100
AcDbPolyline
 90
        4
 70
     1
 43
0.0
 38
-200.8507310852954
 10
854.3645267386825
 20
1538.244537281873
 10
854.3645267386825
 20
1639.107527608987
 10
859.8763485458881
 20
1639.107527608987
 10
859.8763485458881
 20
1538.244537281873
  0
LWPOLYLINE
  5
D63
330
1F
100
AcDbEntity
  8
Conv Magenta 1.5
100
AcDbPolyline
 90
        4
 70
     1
 43
0.0
 38
-200.8507310852954
 10
891.3724152989333
 20
1616.226078205407
 10
891.3724152989333
 20
1639.050838293344
 10
885.8606042753107
 20
1639.050838293344
 10
885.8606042753107
 20
1616.226078205407
  0
LWPOLYLINE
  5
D64
330
1F
100
AcDbEntity
  8
Conv Magenta 1.5
  6
CENTER2
100
AcDbPolyline
 90
        2
 70
     0
 43
0.0
 38
-200.8507310852954
 10
857.1204322504932
 20
1538.244537281873
 10
857.1204438318506
 20
1639.109624550485
  0
LWPOLYLINE
  5
D65
330
1F
100
AcDbEntity
  8
Conv Magenta 1.5
  6
CENTER2
100
AcDbPolyline
 90
        2
 70
     0
 43
0.0
 38
-200.8507310852954
 10
888.6165052284285
 20
1639.048741351846
 10
888.6165052284285
 20
1616.226078205407
  0
LWPOLYLINE
  5
D66
330
1F
100
AcDbEntity
  8
Conv Magenta 1.5
100
AcDbPolyline
 90
        4
 70
     1
 43
0.0
 38
-200.8507310852954
 10
812.1893966739879
 20
1558.540169108116
 10
853.052387001102
 20
1558.540169108116
 10
853.052387001102
 20
1546.528347300911
 10
812.1893966739879
 20
1546.528347300911
  0
MULTILEADER
  5
D67
330
1F
100
AcDbEntity
  8
Dims Magenta 1.5
160
               984
310
D80300001D0000000C00000016000000000000C00C00000033000000000000000C00000013000000993A00000C00000016000000FFFFFFC20C00000014000000010000006C0000000700000004000000F871270B426D8740D4C05443D0A5994019A16530391B69C0EFDE8F6442388940D4C05443D0A5994019A16530391B69
310
C0EFDE8F6442388940E21457378126994019A16530391B69C0F871270B426D8740E21457378126994019A16530391B69C00C00000016000000000000C00C0000001400000001000000C000000026000000BC82370507CA8740787E2A904475994019A16530391B69C000000000000000000000000000000000000000000000
310
F03F000000000000F03F000000000000000000000000000000005300630061006E006E0065007200000007000000010000000000000000002040000000000000F03F0000000000000000000000000000F03F00000000000000000000000000000000000000000000000000000000010000002200000041007200690061006C
310
0000000000000000000000C40000002600000003D2788E6A898740C8E6AA87633F994019A16530391B69C000000000000000000000000000000000000000000000F03F000000000000F03F0000000000000000000000000000000026002000530074006F007000700065007200000009000000010000000000000000002040
310
000000000000F03F0000000000000000000000000000F03F00000000000000000000000000000000000000000000000000000000010000002200000041007200690061006C00000000000000000000000C00000033000000000000000C00000010000000060000000C00000016000000000000C00C00000012000000FF7F00
310
000C00000013000000010000000C0000001400000001000000540000000700000003000000069FDB617C828A40B52322EA1F3F994019A16530391B69C0D951073743B28A4021ED678EFA16994019A16530391B69C0D401201D076B8A40238EE0003535994019A16530391B69C00C00000013000000891300003C0000000600
310
0000020000006DD07DBFC1768A40EC5881752A3A994019A16530391B69C09F2671DF56FE8940E1D72A1B5F81994019A16530391B69C00C00000013000000122700003C00000006000000020000009F2671DF56FE8940E1D72A1B5F81994019A16530391B69C09F2671DF56468940E1D72A1B5F81994019A16530391B69C00C
310
00000016000000000000C00C00000012000000FF7F00000C00000017000000000000000C000000130000009A3A00000C00000016000000000000C00C00000012000000FF7F00000C00000017000000FFFFFFFF0C0000003300000000000000
100
AcDbMLeader
270
     2
300
CONTEXT_DATA{
 40
64.0
 10
747.8972478372248
 20
1632.342877072741
 30
-200.8507310852954
 41
8.0
140
11.52
145
5.759999999999999
174
     1
175
     1
176
     2
177
     0
290
     1
304
Scanner\P& Stopper
 11
0.0
 21
0.0
 31
1.0
340
11
 12
803.0324183692846
 22
1637.453381847638
 32
-200.8507310852954
 13
1.0
 23
0.0
 33
0.0
 42
0.0
 43
0.0
 44
0.0
 45
1.0
170
     1
 90
-1073741824
171
     3
172
     5
 91
-1027028792
141
1.5
 92
        0
291
     1
292
     1
173
     0
293
     0
142
0.0
143
0.0
294
     0
295
     0
296
     0
110
854.282819802461
120
1634.071308935417
130
-200.8507310852954
111
1.0
121
0.0
131
0.0
112
0.0
122
1.0
132
0.0
297
     0
302
LEADER{
290
     1
291
     1
 10
831.7924183692847
 20
1632.342877072741
 30
-200.8507310852954
 11
-1.0
 21
0.0
 31
0.0
 90
        1
 40
23.0
304
LEADER_LINE{
 10
854.282819802461
 20
1605.744683860634
 30
-200.8507310852954
 91
        0
305
}
271
     0
303
}
272
     9
273
     9
301
}
340
A27
 90
   279552
170
     1
 91
-1073741824
341
14
171
    -2
290
     1
291
     1
 41
0.359375
 42
0.18
172
     2
343
11
173
     1
 95
        1
174
     1
175
     0
 92
-1073741824
292
     0
 93
-1056964608
 10
1.0
 20
1.0
 30
1.0
 43
0.0
176
     0
293
     0
294
     0
178
     0
179
     1
 45
64.0
271
     0
272
     9
273
     9
295
     0
  0
MULTILEADER
  5
D68
330
1F
100
AcDbEntity
  8
Dims Magenta 1.5
160
              1328
310
300500002B0000000C00000016000000000000C00C00000033000000000000000C00000013000000993A00000C00000016000000FFFFFFC20C00000014000000010000006C0000000700000004000000834C5987469C8C400333444E78B0984019A16530391B69C0BE84C4381BE88D400333444E78B0984019A16530391B69
310
C0BE84C4381BE88D401CC0A031F26F984019A16530391B69C0834C5987469C8C401CC0A031F26F984019A16530391B69C00C00000016000000000000C00C0000001400000001000000C000000026000000F438F1B860B58C400333444E7880984019A16530391B69C000000000000000000000000000000000000000000000
310
F03F000000000000F03F000000000000000000000000000000004400690076006500720074007300000007000000010000000000000000002040000000000000F03F0000000000000000000000000000F03F00000000000000000000000000000000000000000000000000000000010000002200000041007200690061006C
310
00000000000000000000000C00000033000000000000000C00000010000000060000000C00000016000000000000C00C00000012000000FF7F00000C00000013000000010000000C000000140000000100000054000000070000000300000076B39B4F3F178B404C683AFA5F52984019A16530391B69C0DF0B511E3ABF8A40
310
E12CEA36B542984019A16530391B69C0834C7FB953088B405126EF35CD5F984019A16530391B69C00C00000013000000891300003C0000000600000002000000FD7F8D84C90F8B404EC714981659984019A16530391B69C0D504780C32D68B408F79F23F3590984019A16530391B69C00C00000013000000020000000C0000
310
00140000000100000054000000070000000300000088A7CC3251418B402DE7433A617A984019A16530391B69C01F99150AE8E38A40A18556FE6679984019A16530391B69C0E344FF47A23B8B40064CD1827989984019A16530391B69C00C000000130000008A1300003C000000060000000200000036F665BD793E8B409A99
310
8A5EED81984019A16530391B69C0D504780C32D68B408F79F23F3590984019A16530391B69C00C00000013000000030000000C00000014000000010000005400000007000000030000001C2543DBC6208B40B93E987227C8984019A16530391B69C0E5C306C302DF8A406114271656E9984019A16530391B69C06A5757D5BE
310
328B401E5379CB9CD4984019A16530391B69C00C000000130000008B1300003C0000000600000002000000433E4DD8C2298B40ECC8081F62CE984019A16530391B69C0D504780C32D68B408F79F23F3590984019A16530391B69C00C00000013000000040000000C0000001400000001000000540000000700000003000000
310
7C0EF8B396328B40113E1C3752A1984019A16530391B69C0E5C306C302DF8A40626136DA33B6984019A16530391B69C011901E9B9D3B8B40F6FFDCC700B0984019A16530391B69C00C000000130000008C1300003C0000000600000002000000464F8B271A378B40049F7C7FA9A8984019A16530391B69C0D504780C32D68B
310
408F79F23F3590984019A16530391B69C00C00000013000000112700003C0000000600000002000000D504780C32D68B408F79F23F3590984019A16530391B69C0D504780C328E8C408F79F23F3590984019A16530391B69C00C00000016000000000000C00C00000012000000FF7F00000C00000017000000000000000C00
310
0000130000009A3A00000C00000016000000000000C00C00000012000000FF7F00000C00000017000000FFFFFFFF0C0000003300000000000000
100
AcDbMLeader
270
     2
300
CONTEXT_DATA{
 40
64.0
 10
913.7744378448939
 20
1572.052001751584
 30
-200.8507310852954
 41
8.0
140
11.52
145
5.759999999999999
174
     1
175
     1
176
     0
177
     0
290
     1
304
Diverts
 11
0.0
 21
0.0
 31
1.0
340
11
 12
919.5344378448938
 22
1576.117486062635
 32
-200.8507310852954
 13
1.0
 23
0.0
 33
0.0
 42
0.0
 43
0.0
 44
0.0
 45
1.0
170
     1
 90
-1073741824
171
     1
172
     5
 91
-1027028792
141
1.5
 92
        0
291
     1
292
     1
173
     0
293
     0
142
0.0
143
0.0
294
     0
295
     0
296
     0
110
855.9033781368015
120
1552.676967295636
130
-200.8507310852954
111
1.0
121
0.0
131
0.0
112
0.0
122
1.0
132
0.0
297
     0
302
LEADER{
290
     1
291
     1
 10
890.7744378448938
 20
1572.052001751584
 30
-200.8507310852954
 11
1.0
 21
0.0
 31
0.0
 90
        0
 40
23.0
304
LEADER_LINE{
 10
855.9033781368015
 20
1552.676967295636
 30
-200.8507310852954
 91
        0
305
}
304
LEADER_LINE{
 10
860.4883004844049
 20
1566.350579597383
 30
-200.8507310852954
 91
        1
305
}
304
LEADER_LINE{
 10
859.8763485458881
 20
1594.334068880671
 30
-200.8507310852954
 91
        2
305
}
304
LEADER_LINE{
 10
859.8763485458881
 20
1581.550637101835
 30
-200.8507310852954
 91
        3
305
}
271
     0
303
}
272
     9
273
     9
301
}
340
A27
 90
   279552
170
     1
 91
-1073741824
341
14
171
    -2
290
     1
291
     1
 41
0.359375
 42
0.18
172
     2
343
11
173
     1
 95
        1
174
     1
175
     0
 92
-1073741824
292
     0
 93
-1056964608
 10
1.0
 20
1.0
 30
1.0
 43
0.0
176
     0
293
     0
294
     0
178
     0
179
     1
 45
64.0
271
     0
272
     9
273
     9
295
     0
  0
LWPOLYLINE
  5
D69
330
1F
100
AcDbEntity
  8
Conv Magenta 1.5
100
AcDbPolyline
 90
        4
 70
     1
 43
0.0
 38
-200.8507310852954
 10
812.1893966739879
 20
1572.540169108116
 10
853.052387001102
 20
1572.540169108116
 10
853.052387001102
 20
1560.528347300911
 10
812.1893966739879
 20
1560.528347300911
  0
LWPOLYLINE
  5
D6A
330
1F
100
AcDbEntity
  8
Conv Magenta 1.5
100
AcDbPolyline
 90
        4
 70
     1
 43
0.0
 38
-200.8507310852954
 10
812.1893966739879
 20
1586.540169108116
 10
853.052387001102
 20
1586.540169108116
 10
853.052387001102
 20
1574.528347300911
 10
812.1893966739879
 20
1574.528347300911
  0
LWPOLYLINE
  5
D6B
330
1F
100
AcDbEntity
  8
Conv Magenta 1.5
100
AcDbPolyline
 90
        4
 70
     1
 43
0.0
 38
-200.8507310852954
 10
812.1893966739879
 20
1600.540169108116
 10
853.052387001102
 20
1600.540169108116
 10
853.052387001102
 20
1588.528347300911
 10
812.1893966739879
 20
1588.528347300911
  0
LWPOLYLINE
  5
D6C
330
1F
100
AcDbEntity
  8
Conv Magenta 1.5
100
AcDbPolyline
 90
        4
 70
     1
 43
0.0
 38
-200.8507310852954
 10
859.8763477127901
 20
1616.284864462549
 10
859.8763477127901
 20
1639.109624550485
 10
854.3645366891675
 20
1639.109624550485
 10
854.3645366891675
 20
1616.284864462549
  0
LINE
  5
DAA
330
1F
100
AcDbEntity
  8
Specimen Conv. Phase 2
100
AcDbLine
 10
891.3379667013334
 20
1640.207696898613
 30
-200.8507310852956
 11
891.3379667013334
 21
2398.651294098225
 31
-200.8507310852956
  0
ENDSEC
  0
SECTION
  2
OBJECTS
  0
DICTIONARY
  5
C
330
0
100
AcDbDictionary
281
     1
  3
ACAD_CIP_PREVIOUS_PRODUCT_INFO
350
1A5
  3
ACAD_COLOR
350
73
  3
ACAD_DETAILVIEWSTYLE
350
1AB
  3
ACAD_GROUP
350
D
  3
ACAD_LAYOUT
350
1A
  3
ACAD_MATERIAL
350
72
  3
ACAD_MLEADERSTYLE
350
D7
  3
ACAD_MLINESTYLE
350
17
  3
ACAD_PLOTSETTINGS
350
19
  3
ACAD_PLOTSTYLENAME
350
E
  3
ACAD_SCALELIST
350
B6
  3
ACAD_SECTIONVIEWSTYLE
350
1A8
  3
ACAD_TABLESTYLE
350
86
  3
ACAD_VISUALSTYLE
350
99
  3
ACDB_RECOMPOSE_DATA
350
DC6
  3
AcDbVariableDictionary
350
66
  3
AcDsDecomposeData
350
DCC
  3
AEC_PROPERTY_SET_DEFS
350
3DA
  0
DICTIONARY
  5
18E
330
2
100
AcDbDictionary
280
     1
281
     1
  3
ACAD_LAYERSTATES
360
18F
  0
DICTIONARY
  5
E6
330
10
100
AcDbDictionary
280
     1
281
     1
  0
DICTIONARY
  5
A18
330
A17
100
AcDbDictionary
280
     1
281
     1
  0
DICTIONARY
  5
A1B
330
A1A
100
AcDbDictionary
280
     1
281
     1
  0
DICTIONARY
  5
A1E
330
A1D
100
AcDbDictionary
280
     1
281
     1
  0
DICTIONARY
  5
A21
330
A20
100
AcDbDictionary
280
     1
281
     1
  0
DICTIONARY
  5
15D
330
1F
100
AcDbDictionary
280
     1
281
     1
  3
ACAD_SORTENTS
360
CF7
  0
DICTIONARY
  5
CB4
330
CB3
100
AcDbDictionary
280
     1
281
     1
  3
ACAD_DIMASSOC
360
CB5
  0
XRECORD
  5
1A5
102
{ACAD_REACTORS
330
C
102
}
330
C
100
AcDbXrecord
280
     1
300
ACD
300
2018
300
ACD_F_S
  0
DICTIONARY
  5
73
102
{ACAD_REACTORS
330
C
102
}
330
C
100
AcDbDictionary
281
     1
  0
DICTIONARY
  5
1AB
102
{ACAD_REACTORS
330
C
102
}
330
C
100
AcDbDictionary
281
     1
  3
Imperial24
350
1AC
  0
DICTIONARY
  5
D
102
{ACAD_REACTORS
330
C
102
}
330
C
100
AcDbDictionary
281
     1
  0
DICTIONARY
  5
1A
102
{ACAD_REACTORS
330
C
102
}
330
C
100
AcDbDictionary
281
     1
  3
Layout1
350
59
  3
Layout2
350
5E
  3
Model
350
22
  0
DICTIONARY
  5
72
102
{ACAD_REACTORS
330
C
102
}
330
C
100
AcDbDictionary
281
     1
  3
ByBlock
350
97
  3
ByLayer
350
96
  3
Global
350
98
  0
DICTIONARY
  5
D7
102
{ACAD_REACTORS
330
C
102
}
330
C
100
AcDbDictionary
281
     1
  3
HOJ 8
350
A27
  3
Standard
350
D8
  0
DICTIONARY
  5
17
102
{ACAD_REACTORS
330
C
102
}
330
C
100
AcDbDictionary
281
     1
  3
Standard
350
18
  0
DICTIONARY
  5
19
102
{ACAD_REACTORS
330
C
102
}
330
C
100
AcDbDictionary
281
     1
  0
ACDBDICTIONARYWDFLT
  5
E
102
{ACAD_REACTORS
330
C
102
}
330
C
100
AcDbDictionary
281
     1
  3
Normal
350
F
100
AcDbDictionaryWithDefault
340
F
  0
DICTIONARY
  5
B6
102
{ACAD_REACTORS
330
C
102
}
330
C
100
AcDbDictionary
281
     1
  3
A0
350
B7
  3
A1
350
124
  3
A2
350
125
  3
A3
350
126
  3
A4
350
127
  3
A5
350
128
  3
A6
350
129
  3
A7
350
12A
  3
A8
350
12B
  3
A9
350
12C
  3
B0
350
12D
  3
B1
350
12E
  3
B2
350
12F
  3
B3
350
130
  3
B4
350
131
  3
B5
350
132
  3
B6
350
133
  3
B7
350
134
  3
B8
350
135
  3
B9
350
136
  3
C0
350
137
  3
C1
350
138
  3
C2
350
139
  3
C3
350
13A
  3
C4
350
13B
  3
C5
350
13C
  3
C6
350
13D
  3
C7
350
13E
  3
C8
350
13F
  3
C9
350
140
  3
D0
350
141
  3
D1
350
142
  3
D2
350
143
  0
DICTIONARY
  5
1A8
102
{ACAD_REACTORS
330
C
102
}
330
C
100
AcDbDictionary
281
     1
  3
Imperial24
350
1AA
  0
DICTIONARY
  5
86
102
{ACAD_REACTORS
330
C
102
}
330
C
100
AcDbDictionary
281
     1
  3
Standard
350
87
  0
DICTIONARY
  5
99
102
{ACAD_REACTORS
330
C
102
}
330
C
100
AcDbDictionary
281
     1
  3
2dWireframe
350
9F
  3
3dWireframe
350
22A
  3
Basic
350
9E
  3
Brighten
350
A5
  3
ColorChange
350
A9
  3
Conceptual
350
A2
  3
Dim
350
A4
  3
EdgeColorOff
350
175
  3
Facepattern
350
A8
  3
Flat
350
9A
  3
FlatWithEdges
350
9B
  3
Gouraud
350
9C
  3
GouraudWithEdges
350
9D
  3
Hidden
350
A1
  3
JitterOff
350
173
  3
Linepattern
350
A7
  3
OverhangOff
350
174
  3
Realistic
350
A3
  3
Shaded
350
182
  3
Shaded with edges
350
181
  3
Shades of Gray
350
17E
  3
Sketchy
350
17F
  3
Thicken
350
A6
  3
Wireframe
350
A0
  3
X-Ray
350
180
  0
XRECORD
  5
DC6
102
{ACAD_REACTORS
330
C
102
}
330
C
100
AcDbXrecord
280
     1
 90
        1
330
87
330
CB8
330
CB9
330
CBA
330
CBB
330
CE8
330
CE9
  0
DICTIONARY
  5
66
102
{ACAD_REACTORS
330
C
102
}
330
C
100
AcDbDictionary
281
     1
  3
CANNOSCALE
350
F0
  3
CMLEADERSTYLE
350
EF
  3
CTABLESTYLE
350
89
  3
CVIEWDETAILSTYLE
350
1B7
  3
CVIEWSECTIONSTYLE
350
1B8
  3
DIMASSOC
350
67
  3
HIDETEXT
350
6B
  3
LAYEREVAL
350
14D
  3
LAYERNOTIFY
350
14E
  0
DICTIONARY
  5
DCC
102
{ACAD_REACTORS
330
C
102
}
330
C
100
AcDbDictionary
281
     1
  3
AcDsRecords
350
DCE
  3
AcDsSchemas
350
DCD
1001
ACAD
1070
     2
  0
DICTIONARY
  5
3DA
102
{ACAD_REACTORS
330
C
102
}
330
C
100
AcDbDictionary
281
     1
  0
DICTIONARY
  5
18F
102
{ACAD_REACTORS
330
18E
102
}
330
18E
100
AcDbDictionary
281
     1
  0
SORTENTSTABLE
  5
CF7
102
{ACAD_REACTORS
330
15D
102
}
330
15D
100
AcDbSortentsTable
330
1F
331
582
  5
582
331
901
  5
907
331
586
  5
586
331
905
  5
90B
331
909
  5
90F
331
90D
  5
913
331
BE0
  5
BE6
331
9DC
  5
9E2
331
BAB
  5
BB1
331
C58
  5
C5E
331
BE4
  5
BEA
331
C23
  5
C29
331
9E0
  5
9E6
331
BAF
  5
BB5
331
C5C
  5
C62
331
C9B
  5
CA1
331
BE8
  5
BEE
331
C27
  5
C2D
331
9E4
  5
B94
331
BB3
  5
BB9
331
CD0
  5
CD6
331
D6B
  5
DA9
331
C60
  5
C66
331
C9F
  5
CA5
331
BEC
  5
BF2
331
C2B
  5
C33
331
BB7
  5
BBD
331
CD4
  5
CDA
331
C64
  5
C6A
331
CA3
  5
CA9
331
C2F
  5
C35
331
CD8
  5
CDE
331
CA7
  5
CAD
331
CDC
  5
CE2
331
8D2
  5
8D8
331
911
  5
917
331
8D6
  5
8DC
331
915
  5
91B
331
8DA
  5
8E0
331
919
  5
91F
331
8DE
  5
8E4
331
91D
  5
923
331
55D
  5
55D
331
561
  5
561
331
565
  5
565
331
BF0
  5
BF6
331
BBB
  5
BC1
331
C68
  5
C6E
331
BF4
  5
BFA
331
C33
  5
C39
331
BBF
  5
BC5
331
C6C
  5
C72
331
CAB
  5
CB1
331
BF8
  5
BFE
331
C37
  5
C3D
331
BC3
  5
BC9
331
CE0
  5
CED
331
C70
  5
C76
331
CAF
  5
CB7
331
BFC
  5
C02
331
C3B
  5
C41
331
BC7
  5
BCD
331
C74
  5
C7A
331
CB3
  5
CBB
331
C3F
  5
C45
331
CE8
  5
CEE
331
CB7
  5
CBD
331
CEC
  5
D5D
331
8E2
  5
8E8
331
921
  5
927
331
8E6
  5
8EC
331
925
  5
9DC
331
8EA
  5
8F0
331
8EE
  5
8F4
331
569
  5
569
331
56D
  5
56D
331
C00
  5
C06
331
BCB
  5
BD1
331
C78
  5
C7E
331
C04
  5
C0A
331
C43
  5
C49
331
BCF
  5
BD5
331
C7C
  5
C82
331
CBB
  5
CC1
331
C08
  5
C0E
331
C47
  5
C4D
331
B94
  5
B9A
331
C80
  5
C86
331
CBF
  5
CC5
331
C0C
  5
C12
331
C84
  5
C8A
331
573
  5
573
331
8F2
  5
8F8
331
577
  5
577
331
8F6
  5
8FC
331
57B
  5
57B
331
8FA
  5
900
331
57F
  5
57F
331
8FE
  5
904
331
929
  5
9E0
331
B98
  5
B9E
331
BD1
  5
BD7
331
C10
  5
C16
331
B9C
  5
BA2
331
C49
  5
C4F
331
C88
  5
C8E
331
BD5
  5
BDB
331
C14
  5
C1A
331
BA0
  5
BA6
331
C4D
  5
C53
331
C8C
  5
C92
331
BD9
  5
BDF
331
C18
  5
C1E
331
BA4
  5
BAA
331
CC1
  5
CC7
331
C51
  5
C57
331
C90
  5
C96
331
BDD
  5
BE3
331
C1C
  5
C22
331
CC5
  5
CCB
331
D60
  5
D62
331
C55
  5
C5B
331
C94
  5
C9A
331
CC9
  5
CCF
331
D64
  5
D66
331
CCD
  5
CD3
331
583
  5
583
331
902
  5
908
331
587
  5
587
331
906
  5
90C
331
90A
  5
910
331
877
  5
877
331
90E
  5
914
331
BA8
  5
BAE
331
BE1
  5
BE7
331
C20
  5
C26
331
9DD
  5
9E3
331
BAC
  5
BB2
331
C59
  5
C5F
331
C98
  5
C9E
331
BE5
  5
BEB
331
C24
  5
C2A
331
9E1
  5
9E7
331
BB0
  5
BB6
331
D68
  5
D6A
331
C5D
  5
C63
331
C9C
  5
CA2
331
BE9
  5
BEF
331
C28
  5
C2E
331
9E5
  5
B95
331
BB4
  5
BBA
331
CD1
  5
CD7
331
D6C
  5
DAA
331
C61
  5
C67
331
CA0
  5
CA6
331
BED
  5
BF3
331
C2C
  5
C34
331
CD5
  5
CDB
331
C65
  5
C6B
331
CA4
  5
CAA
331
CD9
  5
CDF
331
CDD
  5
CE3
331
8D3
  5
8D9
331
912
  5
918
331
8D7
  5
8DD
331
916
  5
91C
331
8DB
  5
8E1
331
91A
  5
920
331
8DF
  5
8E5
331
91E
  5
924
331
55E
  5
55E
331
562
  5
562
331
566
  5
566
331
BB8
  5
BBE
331
BF1
  5
BF7
331
C30
  5
C36
331
BBC
  5
BC2
331
C69
  5
C6F
331
CA8
  5
CAE
331
BF5
  5
BFB
331
C34
  5
C3A
331
BC0
  5
BC6
331
C6D
  5
C73
331
CAC
  5
CB2
331
BF9
  5
BFF
331
C38
  5
C3E
331
BC4
  5
BCA
331
C71
  5
C77
331
CB0
  5
CB8
331
BFD
  5
C03
331
C3C
  5
C42
331
C75
  5
C7B
331
CE9
  5
CEF
331
CED
  5
D5E
331
8E3
  5
8E9
331
922
  5
928
331
8E7
  5
8ED
331
926
  5
9DD
331
8EB
  5
8F1
331
8EF
  5
8F5
331
56A
  5
56A
331
56E
  5
56E
331
BC8
  5
BCE
331
C01
  5
C07
331
C40
  5
C46
331
BCC
  5
BD2
331
C79
  5
C7F
331
CB8
  5
CBE
331
C05
  5
C0B
331
C44
  5
C4A
331
C7D
  5
C83
331
CBC
  5
CC2
331
C09
  5
C0F
331
B95
  5
B9B
331
C81
  5
C87
331
C0D
  5
C13
331
C85
  5
C8B
331
570
  5
570
331
574
  5
574
331
8F3
  5
8F9
331
578
  5
578
331
8F7
  5
8FD
331
57C
  5
57C
331
8FB
  5
901
331
8FF
  5
905
331
92A
  5
9E1
331
B99
  5
B9F
331
BD2
  5
BD8
331
C11
  5
C17
331
B9D
  5
BA3
331
C4A
  5
C50
331
C89
  5
C8F
331
BD6
  5
BDC
331
C15
  5
C1B
331
BA1
  5
BA7
331
C4E
  5
C54
331
C8D
  5
C93
331
BDA
  5
BE0
331
C19
  5
C1F
331
BA5
  5
BAB
331
CC2
  5
CC8
331
D5D
  5
D5F
331
C52
  5
C58
331
C91
  5
C97
331
BDE
  5
BE4
331
C1D
  5
C23
331
CC6
  5
CCC
331
D61
  5
D63
331
C56
  5
C5C
331
C95
  5
C9B
331
CCA
  5
CD0
331
D65
  5
D67
331
CCE
  5
CD4
331
580
  5
580
331
584
  5
584
331
903
  5
909
331
907
  5
90D
331
90B
  5
911
331
90F
  5
915
331
BA9
  5
BAF
331
BE2
  5
BE8
331
C21
  5
C27
331
9DE
  5
9E4
331
BAD
  5
BB3
331
C5A
  5
C60
331
C99
  5
C9F
331
BE6
  5
BEC
331
C25
  5
C2B
331
9E2
  5
B92
331
BB1
  5
BB7
331
D69
  5
D6B
331
C5E
  5
C64
331
C9D
  5
CA3
331
BEA
  5
BF0
331
C29
  5
C2F
331
9E6
  5
B96
331
BB5
  5
BBB
331
CD2
  5
CD8
331
C62
  5
C68
331
CA1
  5
CA7
331
BEE
  5
BF4
331
CD6
  5
CDC
331
C66
  5
C6C
331
CA5
  5
CAB
331
CDA
  5
CE0
331
CDE
  5
CE4
331
8D0
  5
8D6
331
8D4
  5
8DA
331
913
  5
919
331
8D8
  5
8DE
331
917
  5
91D
331
8DC
  5
8E2
331
91B
  5
921
331
91F
  5
925
331
55F
  5
55F
331
563
  5
563
331
567
  5
567
331
BB9
  5
BBF
331
BF2
  5
BF8
331
C31
  5
C37
331
BBD
  5
BC3
331
C6A
  5
C70
331
CA9
  5
CAF
331
BF6
  5
BFC
331
C35
  5
C3B
331
BC1
  5
BC7
331
C6E
  5
C74
331
CAD
  5
CB3
331
BFA
  5
C00
331
C39
  5
C3F
331
BC5
  5
BCB
331
C72
  5
C78
331
CB1
  5
CB9
331
BFE
  5
C04
331
C3D
  5
C43
331
C76
  5
C7C
331
CEA
  5
CF0
331
8E0
  5
8E6
331
8E4
  5
8EA
331
923
  5
929
331
8E8
  5
8EE
331
927
  5
9DE
331
8EC
  5
8F2
331
56B
  5
56B
331
56F
  5
56F
331
BC9
  5
BCF
331
C02
  5
C08
331
C41
  5
C47
331
BCD
  5
BD3
331
C7A
  5
C80
331
CB9
  5
CBF
331
C06
  5
C0C
331
C45
  5
C4B
331
B92
  5
B98
331
C7E
  5
C84
331
CBD
  5
CC3
331
C0A
  5
C10
331
B96
  5
B9C
331
C82
  5
C88
331
C0E
  5
C14
331
C86
  5
C8C
331
571
  5
571
331
8F0
  5
8F6
331
575
  5
575
331
8F4
  5
8FA
331
579
  5
579
331
8F8
  5
8FE
331
57D
  5
57D
331
8FC
  5
902
331
DAA
  5
8D5
331
B9A
  5
BA0
331
BD3
  5
BD9
331
C12
  5
C18
331
B9E
  5
BA4
331
C4B
  5
C51
331
C8A
  5
C90
331
BD7
  5
BDD
331
C16
  5
C1C
331
BA2
  5
BA8
331
C4F
  5
C55
331
C8E
  5
C94
331
BDB
  5
BE1
331
C1A
  5
C20
331
BA6
  5
BAC
331
CC3
  5
CC9
331
D5E
  5
D60
331
C53
  5
C59
331
C92
  5
C98
331
BDF
  5
BE5
331
C1E
  5
C24
331
CC7
  5
CCD
331
D62
  5
D64
331
C57
  5
C5D
331
C96
  5
C9C
331
CCB
  5
CD1
331
D66
  5
D68
331
CCF
  5
CD5
331
581
  5
581
331
900
  5
906
331
585
  5
585
331
904
  5
90A
331
908
  5
90E
331
90C
  5
912
331
BAA
  5
BB0
331
BE3
  5
BE9
331
C22
  5
C28
331
9DF
  5
9E5
331
BAE
  5
BB4
331
C5B
  5
C61
331
C9A
  5
CA0
331
BE7
  5
BED
331
C26
  5
C2C
331
9E3
  5
B93
331
BB2
  5
BB8
331
D6A
  5
D6C
331
C5F
  5
C65
331
C9E
  5
CA4
331
BEB
  5
BF1
331
C2A
  5
C30
331
9E7
  5
B97
331
BB6
  5
BBC
331
CD3
  5
CD9
331
C63
  5
C69
331
CA2
  5
CA8
331
BEF
  5
BF5
331
CD7
  5
CDD
331
C67
  5
C6D
331
CA6
  5
CAC
331
CDB
  5
CE1
331
CDF
  5
CEC
331
8D1
  5
8D7
331
910
  5
916
331
8D5
  5
8DB
331
914
  5
91A
331
8D9
  5
8DF
331
918
  5
91E
331
8DD
  5
8E3
331
91C
  5
922
331
55C
  5
55C
331
560
  5
560
331
564
  5
564
331
BBA
  5
BC0
331
BF3
  5
BF9
331
C32
  5
C38
331
BBE
  5
BC4
331
C6B
  5
C71
331
CAA
  5
CB0
331
BF7
  5
BFD
331
C36
  5
C3C
331
BC2
  5
BC8
331
C6F
  5
C75
331
CAE
  5
CB6
331
BFB
  5
C01
331
C3A
  5
C40
331
BC6
  5
BCC
331
C73
  5
C79
331
CB2
  5
CBA
331
BFF
  5
C05
331
C3E
  5
C44
331
C77
  5
C7D
331
CB6
  5
CBC
331
CEB
  5
CF1
331
8E1
  5
8E7
331
920
  5
926
331
8E5
  5
8EB
331
924
  5
92A
331
8E9
  5
8EF
331
8ED
  5
8F3
331
568
  5
568
331
56C
  5
56C
331
BCA
  5
BD0
331
C03
  5
C09
331
C42
  5
C48
331
BCE
  5
BD4
331
C7B
  5
C81
331
CBA
  5
CC0
331
C07
  5
C0D
331
C46
  5
C4C
331
B93
  5
B99
331
C7F
  5
C85
331
CBE
  5
CC4
331
C0B
  5
C11
331
B97
  5
B9D
331
C83
  5
C89
331
C0F
  5
C15
331
C87
  5
C8D
331
572
  5
572
331
8F1
  5
8F7
331
576
  5
576
331
8F5
  5
8FB
331
57A
  5
57A
331
8F9
  5
8FF
331
57E
  5
57E
331
8FD
  5
903
331
928
  5
9DF
331
BD0
  5
BD6
331
B9B
  5
BA1
331
C48
  5
C4E
331
BD4
  5
BDA
331
C13
  5
C19
331
B9F
  5
BA5
331
C4C
  5
C52
331
C8B
  5
C91
331
BD8
  5
BDE
331
C17
  5
C1D
331
BA3
  5
BA9
331
CC0
  5
CC6
331
C50
  5
C56
331
C8F
  5
C95
331
BDC
  5
BE2
331
C1B
  5
C21
331
BA7
  5
BAD
331
CC4
  5
CCA
331
D5F
  5
D61
331
C54
  5
C5A
331
C93
  5
C99
331
C1F
  5
C25
331
CC8
  5
CCE
331
D63
  5
D65
331
C97
  5
C9D
331
CCC
  5
CD2
331
D67
  5
D69
  0
DIMASSOC
  5
CB5
102
{ACAD_REACTORS
330
CB4
102
}
330
CB4
100
AcDbDimAssoc
330
CB3
 90
        1
 70
     0
 71
     0
  1
AcDbOsnapPointRef
 72
     2
331
CB2
 73
     2
 91
        2
 40
0.5
 10
0.0
 20
0.0
 30
0.0
 75
     0
  0
ACDBDETAILVIEWSTYLE
  5
1AC
102
{ACAD_XDICTIONARY
360
DD1
102
}
102
{ACAD_REACTORS
330
1AB
102
}
330
1AB
100
AcDbModelDocViewStyle
 70
     0
  3
Imperial24
290
     0
100
AcDbDetailViewStyle
 70
     0
 71
     0
 90
        3
 71
     1
340
11
 62
   256
 40
0.24
340
0
 62
   256
 40
0.24
300

 40
0.36
280
     3
 71
     2
340
16
 90
       25
 62
   256
 71
     3
340
11
 62
   256
 40
0.24
 90
        1
 40
0.75
 90
        1
300
%<\AcVar ViewType \f "%tc1">% %<\AcVar ViewDetailId>%\PSCALE %<\AcVar ViewScale \f "%sn">%
 71
     4
340
16
 90
       25
 62
   256
340
16
 90
       25
 62
   256
280
     0
  0
LAYOUT
  5
59
102
{ACAD_REACTORS
330
1A
102
}
330
1A
100
AcDbPlotSettings
  1

  2
None
  4

  6

 40
0.0
 41
0.0
 42
0.0
 43
0.0
 44
0.0
 45
0.0
 46
0.0
 47
0.0
 48
0.0
 49
0.0
140
0.0
141
0.0
142
1.0
143
1.0
 70
   688
 72
     0
 73
     0
 74
     5
  7

 75
    16
147
1.0
 76
     0
 77
     2
 78
   300
148
0.0
149
0.0
100
AcDbLayout
  1
Layout1
 70
     1
 71
     1
 10
0.0
 20
0.0
 11
12.0
 21
9.0
 12
0.0
 22
0.0
 32
0.0
 14
0.0
 24
0.0
 34
0.0
 15
0.0
 25
0.0
 35
0.0
146
0.0
 13
0.0
 23
0.0
 33
0.0
 16
1.0
 26
0.0
 36
0.0
 17
0.0
 27
1.0
 37
0.0
 76
     0
330
58
  0
LAYOUT
  5
5E
102
{ACAD_REACTORS
330
1A
102
}
330
1A
100
AcDbPlotSettings
  1

  2
None
  4

  6

 40
0.0
 41
0.0
 42
0.0
 43
0.0
 44
0.0
 45
0.0
 46
0.0
 47
0.0
 48
0.0
 49
0.0
140
0.0
141
0.0
142
1.0
143
1.0
 70
   688
 72
     0
 73
     0
 74
     5
  7

 75
    16
147
1.0
 76
     0
 77
     2
 78
   300
148
0.0
149
0.0
100
AcDbLayout
  1
Layout2
 70
     1
 71
     2
 10
0.0
 20
0.0
 11
12.0
 21
9.0
 12
0.0
 22
0.0
 32
0.0
 14
0.0
 24
0.0
 34
0.0
 15
0.0
 25
0.0
 35
0.0
146
0.0
 13
0.0
 23
0.0
 33
0.0
 16
1.0
 26
0.0
 36
0.0
 17
0.0
 27
1.0
 37
0.0
 76
     0
330
5D
  0
LAYOUT
  5
22
102
{ACAD_XDICTIONARY
360
194
102
}
102
{ACAD_REACTORS
330
1A
102
}
330
1A
100
AcDbPlotSettings
  1

  2
none_device
  4
ANSI_A_(8.50_x_11.00_Inches)
  6

 40
6.349999904632568
 41
19.04999923706055
 42
6.350006103515625
 43
19.04998779296875
 44
215.8999938964844
 45
279.3999938964844
 46
0.0
 47
0.0
 48
0.0
 49
0.0
140
0.0
141
0.0
142
1.0
143
2.584895464708373
 70
 11952
 72
     0
 73
     1
 74
     0
  7

 75
     0
147
0.3868628397755418
 76
     0
 77
     2
 78
   300
148
0.0
149
0.0
100
AcDbLayout
  1
Model
 70
     1
 71
     0
 10
0.0
 20
0.0
 11
12.0
 21
9.0
 12
0.0
 22
0.0
 32
0.0
 14
0.0
 24
0.0
 34
0.0
 15
0.0
 25
0.0
 35
0.0
146
0.0
 13
0.0
 23
0.0
 33
0.0
 16
1.0
 26
0.0
 36
0.0
 17
0.0
 27
1.0
 37
0.0
 76
     0
330
1F
331
94
  0
MATERIAL
  5
97
102
{ACAD_XDICTIONARY
360
188
102
}
102
{ACAD_REACTORS
330
72
102
}
330
72
100
AcDbMaterial
  1
ByBlock
 94
       63
  0
MATERIAL
  5
96
102
{ACAD_XDICTIONARY
360
186
102
}
102
{ACAD_REACTORS
330
72
102
}
330
72
100
AcDbMaterial
  1
ByLayer
 94
       63
  0
MATERIAL
  5
98
102
{ACAD_XDICTIONARY
360
110
102
}
102
{ACAD_REACTORS
330
72
102
}
330
72
100
AcDbMaterial
  1
Global
 43
0.0208000000566244
 43
0.0
 43
0.0
 43
0.0
 43
0.0
 43
0.0208000000566244
 43
0.0
 43
0.0
 43
0.0
 43
0.0
 43
1.0
 43
0.0
 43
0.0
 43
0.0
 43
0.0
 43
1.0
 49
0.0208000000566244
 49
0.0
 49
0.0
 49
0.0
 49
0.0
 49
0.0208000000566244
 49
0.0
 49
0.0
 49
0.0
 49
0.0
 49
1.0
 49
0.0
 49
0.0
 49
0.0
 49
0.0
 49
1.0
142
0.0208000000566244
142
0.0
142
0.0
142
0.0
142
0.0
142
0.0208000000566244
142
0.0
142
0.0
142
0.0
142
0.0
142
1.0
142
0.0
142
0.0
142
0.0
142
0.0
142
1.0
144
0.0208000000566244
144
0.0
144
0.0
144
0.0
144
0.0
144
0.0208000000566244
144
0.0
144
0.0
144
0.0
144
0.0
144
1.0
144
0.0
144
0.0
144
0.0
144
0.0
144
1.0
 94
       63
1001
ACAD
1070
    -1
1070
     3
1070
     0
1000

1071
        0
1070
     0
  0
MLEADERSTYLE
  5
A27
102
{ACAD_REACTORS
330
D7
330
CB0
330
CB1
330
CB3
330
CB6
330
CB7
330
CC1
330
CC2
330
CC3
330
CC4
330
CC6
330
CC7
330
CC8
330
CC9
330
CCA
330
CCB
330
CCC
330
CCD
330
CCE
330
CCF
330
CD0
330
CD2
330
CEB
330
CED
330
B92
330
D67
330
D68
102
}
330
D7
100
AcDbMLeaderStyle
179
     2
170
     2
171
     1
172
     0
 90
        2
 40
0.0
 41
0.0
173
     1
 91
-1073741824
340
14
 92
       -2
290
     1
 42
0.09
291
     1
 43
0.359375
  3
Standard
 44
0.18
300

342
11
174
     1
178
     1
175
     1
176
     0
 93
-1073741824
 45
0.125
292
     0
297
     0
 46
0.18
 94
-1056964608
 47
1.0
 49
1.0
140
1.0
293
     1
141
0.0
294
     1
177
     0
142
64.0
295
     0
296
     0
143
0.125
271
     0
272
     9
273
     9
298
     0
  0
MLEADERSTYLE
  5
D8
102
{ACAD_REACTORS
330
D7
102
}
330
D7
100
AcDbMLeaderStyle
179
     2
170
     2
171
     1
172
     0
 90
        2
 40
0.0
 41
0.0
173
     1
 91
-1056964608
340
14
 92
       -2
290
     1
 42
0.09
291
     1
 43
0.36
  3
Standard
 44
0.18
300

342
11
174
     1
178
     1
175
     1
176
     0
 93
-1056964608
 45
0.18
292
     0
297
     0
 46
0.18
 94
-1056964608
 47
1.0
 49
1.0
140
1.0
293
     1
141
0.0
294
     1
177
     0
142
1.0
295
     0
296
     0
143
0.125
271
     0
272
     9
273
     9
298
     0
  0
MLINESTYLE
  5
18
102
{ACAD_REACTORS
330
17
102
}
330
17
100
AcDbMlineStyle
  2
STANDARD
 70
     0
  3

 62
   256
 51
90.0
 52
90.0
 71
     2
 49
0.5
 62
   256
  6
BYLAYER
 49
-0.5
 62
   256
  6
BYLAYER
  0
ACDBPLACEHOLDER
  5
F
102
{ACAD_REACTORS
330
E
102
}
330
E
  0
SCALE
  5
B7
102
{ACAD_REACTORS
330
B6
102
}
330
B6
100
AcDbScale
 70
     0
300
1:1
140
1.0
141
1.0
290
     1
  0
SCALE
  5
124
102
{ACAD_REACTORS
330
B6
102
}
330
B6
100
AcDbScale
 70
     0
300
1:2
140
1.0
141
2.0
290
     0
  0
SCALE
  5
125
102
{ACAD_REACTORS
330
B6
102
}
330
B6
100
AcDbScale
 70
     0
300
1:4
140
1.0
141
4.0
290
     0
  0
SCALE
  5
126
102
{ACAD_REACTORS
330
B6
102
}
330
B6
100
AcDbScale
 70
     0
300
1:5
140
1.0
141
5.0
290
     0
  0
SCALE
  5
127
102
{ACAD_REACTORS
330
B6
102
}
330
B6
100
AcDbScale
 70
     0
300
1:8
140
1.0
141
8.0
290
     0
  0
SCALE
  5
128
102
{ACAD_REACTORS
330
B6
102
}
330
B6
100
AcDbScale
 70
     0
300
1:10
140
1.0
141
10.0
290
     0
  0
SCALE
  5
129
102
{ACAD_REACTORS
330
B6
102
}
330
B6
100
AcDbScale
 70
     0
300
1:16
140
1.0
141
16.0
290
     0
  0
SCALE
  5
12A
102
{ACAD_REACTORS
330
B6
102
}
330
B6
100
AcDbScale
 70
     0
300
1:20
140
1.0
141
20.0
290
     0
  0
SCALE
  5
12B
102
{ACAD_REACTORS
330
B6
102
}
330
B6
100
AcDbScale
 70
     0
300
1:30
140
1.0
141
30.0
290
     0
  0
SCALE
  5
12C
102
{ACAD_REACTORS
330
B6
102
}
330
B6
100
AcDbScale
 70
     0
300
1:40
140
1.0
141
40.0
290
     0
  0
SCALE
  5
12D
102
{ACAD_REACTORS
330
B6
102
}
330
B6
100
AcDbScale
 70
     0
300
1:50
140
1.0
141
50.0
290
     0
  0
SCALE
  5
12E
102
{ACAD_REACTORS
330
B6
102
}
330
B6
100
AcDbScale
 70
     0
300
1:100
140
1.0
141
100.0
290
     0
  0
SCALE
  5
12F
102
{ACAD_REACTORS
330
B6
102
}
330
B6
100
AcDbScale
 70
     0
300
2:1
140
2.0
141
1.0
290
     0
  0
SCALE
  5
130
102
{ACAD_REACTORS
330
B6
102
}
330
B6
100
AcDbScale
 70
     0
300
4:1
140
4.0
141
1.0
290
     0
  0
SCALE
  5
131
102
{ACAD_REACTORS
330
B6
102
}
330
B6
100
AcDbScale
 70
     0
300
8:1
140
8.0
141
1.0
290
     0
  0
SCALE
  5
132
102
{ACAD_REACTORS
330
B6
102
}
330
B6
100
AcDbScale
 70
     0
300
10:1
140
10.0
141
1.0
290
     0
  0
SCALE
  5
133
102
{ACAD_REACTORS
330
B6
102
}
330
B6
100
AcDbScale
 70
     0
300
100:1
140
100.0
141
1.0
290
     0
  0
SCALE
  5
134
102
{ACAD_REACTORS
330
B6
102
}
330
B6
100
AcDbScale
 70
     0
300
1/128" = 1'-0"
140
0.0078125
141
12.0
290
     0
  0
SCALE
  5
135
102
{ACAD_REACTORS
330
B6
102
}
330
B6
100
AcDbScale
 70
     0
300
1/64" = 1'-0"
140
0.015625
141
12.0
290
     0
  0
SCALE
  5
136
102
{ACAD_REACTORS
330
B6
102
}
330
B6
100
AcDbScale
 70
     0
300
1/32" = 1'-0"
140
0.03125
141
12.0
290
     0
  0
SCALE
  5
137
102
{ACAD_REACTORS
330
B6
102
}
330
B6
100
AcDbScale
 70
     0
300
1/16" = 1'-0"
140
0.0625
141
12.0
290
     0
  0
SCALE
  5
138
102
{ACAD_REACTORS
330
B6
102
}
330
B6
100
AcDbScale
 70
     0
300
3/32" = 1'-0"
140
0.09375
141
12.0
290
     0
  0
SCALE
  5
139
102
{ACAD_REACTORS
330
B6
102
}
330
B6
100
AcDbScale
 70
     0
300
1/8" = 1'-0"
140
0.125
141
12.0
290
     0
  0
SCALE
  5
13A
102
{ACAD_REACTORS
330
B6
102
}
330
B6
100
AcDbScale
 70
     0
300
3/16" = 1'-0"
140
0.1875
141
12.0
290
     0
  0
SCALE
  5
13B
102
{ACAD_REACTORS
330
B6
102
}
330
B6
100
AcDbScale
 70
     0
300
1/4" = 1'-0"
140
0.25
141
12.0
290
     0
  0
SCALE
  5
13C
102
{ACAD_REACTORS
330
B6
102
}
330
B6
100
AcDbScale
 70
     0
300
3/8" = 1'-0"
140
0.375
141
12.0
290
     0
  0
SCALE
  5
13D
102
{ACAD_REACTORS
330
B6
102
}
330
B6
100
AcDbScale
 70
     0
300
1/2" = 1'-0"
140
0.5
141
12.0
290
     0
  0
SCALE
  5
13E
102
{ACAD_REACTORS
330
B6
102
}
330
B6
100
AcDbScale
 70
     0
300
3/4" = 1'-0"
140
0.75
141
12.0
290
     0
  0
SCALE
  5
13F
102
{ACAD_REACTORS
330
B6
102
}
330
B6
100
AcDbScale
 70
     0
300
1" = 1'-0"
140
1.0
141
12.0
290
     0
  0
SCALE
  5
140
102
{ACAD_REACTORS
330
B6
102
}
330
B6
100
AcDbScale
 70
     0
300
1-1/2" = 1'-0"
140
1.5
141
12.0
290
     0
  0
SCALE
  5
141
102
{ACAD_REACTORS
330
B6
102
}
330
B6
100
AcDbScale
 70
     0
300
3" = 1'-0"
140
3.0
141
12.0
290
     0
  0
SCALE
  5
142
102
{ACAD_REACTORS
330
B6
102
}
330
B6
100
AcDbScale
 70
     0
300
6" = 1'-0"
140
6.0
141
12.0
290
     0
  0
SCALE
  5
143
102
{ACAD_REACTORS
330
B6
102
}
330
B6
100
AcDbScale
 70
     0
300
1'-0" = 1'-0"
140
12.0
141
12.0
290
     0
  0
ACDBSECTIONVIEWSTYLE
  5
1AA
102
{ACAD_XDICTIONARY
360
DCF
102
}
102
{ACAD_REACTORS
330
1A8
102
}
330
1A8
100
AcDbModelDocViewStyle
 70
     0
  3
Imperial24
290
     0
100
AcDbSectionViewStyle
 70
     0
 71
     0
 90
       78
 71
     1
340
11
 62
   256
 40
0.24
340
0
340
0
 62
   256
 40
0.24
300
I, O, Q, S, X, Z
 40
0.48
 90
        3
 40
0.18
 90
        1
 71
     2
340
16
 90
       25
 62
   256
340
16
 90
       50
 62
   256
 40
0.24
 40
0.0
 40
0.24
 71
     3
340
11
 62
   256
 40
0.24
 90
        1
 40
0.75
 90
        1
300
%<\AcVar ViewType \f "%tc1">% %<\AcVar ViewSectionStartId>%-%<\AcVar ViewSectionEndId>%\PSCALE %<\AcVar ViewScale \f "%sn">%
 71
     4
 62
   256
 62
   257
300
ANSI31
 40
1.0
 90
        0
290
     0
290
     0
 90
        6
 40
0.0
 40
1.570796326794896
 40
0.2617993877991494
 40
1.308996938995747
 40
-0.2617993877991494
 40
1.832595714594046
  0
TABLESTYLE
  5
87
102
{ACAD_XDICTIONARY
360
104
102
}
102
{ACAD_REACTORS
330
86
102
}
330
86
100
AcDbTableStyle
280
     0
  3
Standard
 70
     0
 71
     0
 40
0.06
 41
0.06
280
     0
281
     0
  7
Standard
140
0.18
170
     2
 62
     0
 63
     7
283
     0
 90
      512
 91
        0
  1

274
    -2
284
     1
 64
     0
275
    -2
285
     1
 65
     0
276
    -2
286
     1
 66
     0
277
    -2
287
     1
 67
     0
278
    -2
288
     1
 68
     0
279
    -2
289
     1
 69
     0
  7
Standard
140
0.25
170
     5
 62
     0
 63
     7
283
     0
 90
      512
 91
        0
  1

274
    -2
284
     1
 64
     0
275
    -2
285
     1
 65
     0
276
    -2
286
     1
 66
     0
277
    -2
287
     1
 67
     0
278
    -2
288
     1
 68
     0
279
    -2
289
     1
 69
     0
  7
Standard
140
0.18
170
     5
 62
     0
 63
     7
283
     0
 90
      512
 91
        0
  1

274
    -2
284
     1
 64
     0
275
    -2
285
     1
 65
     0
276
    -2
286
     1
 66
     0
277
    -2
287
     1
 67
     0
278
    -2
288
     1
 68
     0
279
    -2
289
     1
 69
     0
  0
VISUALSTYLE
  5
9F
102
{ACAD_REACTORS
330
99
102
}
330
99
100
AcDbVisualStyle
  2
2dWireframe
 70
     4
177
     3
291
     0
 70
    58
 90
        0
176
     1
 90
        2
176
     1
 90
        1
176
     1
 90
        0
176
     1
 40
0.6
176
     1
 40
30.0
176
     1
 62
     7
420
 16777215
176
     1
 90
        1
176
     1
 90
        4
176
     1
 62
     7
176
     1
 62
   257
176
     1
 90
        1
176
     1
 90
        1
176
     1
 40
1.0
176
     1
 90
        0
176
     1
 62
   257
176
     1
 40
1.0
176
     1
 90
        1
176
     1
 90
        6
176
     1
 90
        2
176
     1
 62
     7
176
     1
 90
        5
176
     1
 90
        0
176
     1
 90
        0
176
     1
290
     0
176
     1
 90
        1
176
     1
 40
0.0
176
     1
 90
        0
176
     1
290
     1
176
     1
290
     1
176
     1
290
     0
176
     1
290
     0
176
     1
290
     0
176
     1
290
     0
176
     1
290
     0
176
     1
290
     0
176
     1
290
     0
176
     1
 90
       50
176
     1
 40
0.0
176
     1
 40
1.0
176
     1
 90
        0
176
     1
 62
    18
420
        0
176
     1
 90
       50
176
     1
 90
        3
176
     1
 62
     5
420
      255
176
     1
290
     0
176
     1
 90
       50
176
     1
 90
       50
176
     1
 90
       50
176
     1
290
     0
176
     1
 90
       50
176
     1
 62
   256
176
     0
 40
1.0
176
     0
 90
        2
176
     1
  1
strokes_ogs.tif
176
     1
290
     0
176
     1
 40
1.0
176
     1
 40
1.0
176
     1
1001
ACAD
1000
AcDbSavedByObjectVersion
1070
     0
  0
VISUALSTYLE
  5
22A
102
{ACAD_REACTORS
330
99
102
}
330
99
100
AcDbVisualStyle
  2
3dWireframe
 70
     5
177
     3
291
     0
 70
    58
 90
        0
176
     1
 90
        2
176
     1
 90
        1
176
     1
 90
        0
176
     1
 40
0.6
176
     1
 40
30.0
176
     1
 62
     7
420
 16777215
176
     1
 90
        1
176
     1
 90
        4
176
     1
 62
     7
176
     1
 62
   257
176
     1
 90
        1
176
     1
 90
        1
176
     1
 40
1.0
176
     1
 90
        0
176
     1
 62
   257
176
     1
 40
1.0
176
     1
 90
        1
176
     1
 90
        6
176
     1
 90
        2
176
     1
 62
     7
176
     1
 90
        5
176
     1
 90
        0
176
     1
 90
        0
176
     1
290
     0
176
     1
 90
        1
176
     1
 40
0.0
176
     1
 90
        0
176
     1
290
     0
176
     1
290
     1
176
     1
290
     1
176
     1
290
     0
176
     1
290
     0
176
     1
290
     0
176
     1
290
     0
176
     1
290
     0
176
     1
290
     0
176
     1
 90
       50
176
     1
 40
0.0
176
     1
 40
1.0
176
     1
 90
        0
176
     1
 62
    18
420
        0
176
     1
 90
       50
176
     1
 90
        3
176
     1
 62
     5
420
      255
176
     1
290
     0
176
     1
 90
       50
176
     1
 90
       50
176
     1
 90
       50
176
     1
290
     0
176
     1
 90
       50
176
     1
 62
   256
176
     0
 40
1.0
176
     0
 90
        2
176
     1
  1
strokes_ogs.tif
176
     1
290
     0
176
     1
 40
1.0
176
     1
 40
1.0
176
     1
1001
ACAD
1000
AcDbSavedByObjectVersion
1070
     0
  0
VISUALSTYLE
  5
9E
102
{ACAD_REACTORS
330
99
102
}
330
99
100
AcDbVisualStyle
  2
Basic
 70
     7
177
     3
291
     1
 70
    58
 90
        1
176
     1
 90
        0
176
     1
 90
        1
176
     1
 90
        0
176
     1
 40
0.6
176
     1
 40
30.0
176
     1
 62
     7
420
 16777215
176
     1
 90
        0
176
     1
 90
        4
176
     1
 62
     7
176
     1
 62
   257
176
     1
 90
        1
176
     1
 90
        1
176
     1
 40
1.0
176
     1
 90
        8
176
     1
 62
     7
176
     1
 40
1.0
176
     1
 90
        1
176
     1
 90
        6
176
     1
 90
        2
176
     1
 62
     7
176
     1
 90
        5
176
     1
 90
        0
176
     1
 90
        0
176
     1
290
     0
176
     1
 90
        1
176
     1
 40
0.0
176
     1
 90
        0
176
     1
290
     0
176
     1
290
     1
176
     1
290
     1
176
     1
290
     0
176
     1
290
     0
176
     1
290
     0
176
     1
290
     0
176
     1
290
     0
176
     1
290
     0
176
     1
 90
       50
176
     1
 40
0.0
176
     1
 40
1.0
176
     1
 90
        0
176
     1
 62
    18
420
        0
176
     1
 90
       50
176
     1
 90
        3
176
     1
 62
     5
420
      255
176
     1
290
     0
176
     1
 90
       50
176
     1
 90
       50
176
     1
 90
       50
176
     1
290
     0
176
     1
 90
       50
176
     1
 62
   256
176
     0
 40
1.0
176
     0
 90
        2
176
     1
  1
strokes_ogs.tif
176
     1
290
     0
176
     1
 40
1.0
176
     1
 40
1.0
176
     1
1001
ACAD
1000
AcDbSavedByObjectVersion
1070
     0
  0
VISUALSTYLE
  5
A5
102
{ACAD_REACTORS
330
99
102
}
330
99
100
AcDbVisualStyle
  2
Brighten
 70
    12
177
     3
291
     1
 70
    58
 90
        2
176
     1
 90
        2
176
     1
 90
        1
176
     1
 90
        0
176
     1
 40
0.6
176
     1
 40
30.0
176
     1
 62
     7
420
 16777215
176
     1
 90
        1
176
     1
 90
        4
176
     1
 62
     7
176
     1
 62
   257
176
     1
 90
        1
176
     1
 90
        1
176
     1
 40
1.0
176
     1
 90
        8
176
     1
 62
     7
176
     1
 40
1.0
176
     1
 90
        1
176
     1
 90
        6
176
     1
 90
        2
176
     1
 62
     7
176
     1
 90
        5
176
     1
 90
        0
176
     1
 90
        0
176
     1
290
     0
176
     1
 90
        1
176
     1
 40
50.0
176
     1
 90
        0
176
     1
290
     0
176
     1
290
     1
176
     1
290
     1
176
     1
290
     0
176
     1
290
     0
176
     1
290
     0
176
     1
290
     0
176
     1
290
     0
176
     1
290
     0
176
     1
 90
       50
176
     1
 40
0.0
176
     1
 40
1.0
176
     1
 90
        0
176
     1
 62
    18
420
        0
176
     1
 90
       50
176
     1
 90
        3
176
     1
 62
     5
420
      255
176
     1
290
     0
176
     1
 90
       50
176
     1
 90
       50
176
     1
 90
       50
176
     1
290
     0
176
     1
 90
       50
176
     1
 62
   256
176
     0
 40
1.0
176
     0
 90
        2
176
     1
  1
strokes_ogs.tif
176
     1
290
     0
176
     1
 40
1.0
176
     1
 40
1.0
176
     1
1001
ACAD
1000
AcDbSavedByObjectVersion
1070
     0
  0
VISUALSTYLE
  5
A9
102
{ACAD_REACTORS
330
99
102
}
330
99
100
AcDbVisualStyle
  2
ColorChange
 70
    16
177
     3
291
     1
 70
    58
 90
        2
176
     1
 90
        2
176
     1
 90
        3
176
     1
 90
        0
176
     1
 40
0.6
176
     1
 40
30.0
176
     1
 62
     8
420
  8421504
176
     1
 90
        1
176
     1
 90
        4
176
     1
 62
     7
176
     1
 62
   257
176
     1
 90
        1
176
     1
 90
        1
176
     1
 40
1.0
176
     1
 90
        8
176
     1
 62
     8
420
  8421504
176
     1
 40
1.0
176
     1
 90
        1
176
     1
 90
        6
176
     1
 90
        2
176
     1
 62
     7
176
     1
 90
        5
176
     1
 90
        0
176
     1
 90
        0
176
     1
290
     0
176
     1
 90
        1
176
     1
 40
0.0
176
     1
 90
        0
176
     1
290
     0
176
     1
290
     1
176
     1
290
     1
176
     1
290
     0
176
     1
290
     0
176
     1
290
     0
176
     1
290
     0
176
     1
290
     0
176
     1
290
     0
176
     1
 90
       50
176
     1
 40
0.0
176
     1
 40
1.0
176
     1
 90
        0
176
     1
 62
    18
420
        0
176
     1
 90
       50
176
     1
 90
        3
176
     1
 62
     5
420
      255
176
     1
290
     0
176
     1
 90
       50
176
     1
 90
       50
176
     1
 90
       50
176
     1
290
     0
176
     1
 90
       50
176
     1
 62
   256
176
     0
 40
1.0
176
     0
 90
        2
176
     1
  1
strokes_ogs.tif
176
     1
290
     0
176
     1
 40
1.0
176
     1
 40
1.0
176
     1
1001
ACAD
1000
AcDbSavedByObjectVersion
1070
     0
  0
VISUALSTYLE
  5
A2
102
{ACAD_REACTORS
330
99
102
}
330
99
100
AcDbVisualStyle
  2
Conceptual
 70
     9
177
     3
291
     0
 70
    58
 90
        3
176
     1
 90
        2
176
     1
 90
        1
176
     1
 90
        0
176
     1
 40
0.6
176
     1
 40
30.0
176
     1
 62
     7
420
 16777215
176
     1
 90
        2
176
     1
 90
        2
176
     1
 62
     7
176
     1
 62
   257
176
     1
 90
        1
176
     1
 90
        1
176
     1
 40
40.0
176
     1
 90
        8
176
     1
 62
     7
176
     1
 40
1.0
176
     1
 90
        1
176
     1
 90
        6
176
     1
 90
        2
176
     1
 62
     7
176
     1
 90
        3
176
     1
 90
        0
176
     1
 90
        0
176
     1
290
     0
176
     1
 90
        1
176
     1
 40
0.0
176
     1
 90
        0
176
     1
290
     0
176
     1
290
     1
176
     1
290
     1
176
     1
290
     0
176
     1
290
     0
176
     1
290
     0
176
     1
290
     0
176
     1
290
     0
176
     1
290
     0
176
     1
 90
       50
176
     1
 40
0.0
176
     1
 40
1.0
176
     1
 90
        0
176
     1
 62
    18
420
        0
176
     1
 90
       50
176
     1
 90
        3
176
     1
 62
     5
420
      255
176
     1
290
     0
176
     1
 90
       50
176
     1
 90
       50
176
     1
 90
       50
176
     1
290
     0
176
     1
 90
       50
176
     1
 62
   256
176
     0
 40
1.0
176
     0
 90
        2
176
     1
  1
strokes_ogs.tif
176
     1
290
     0
176
     1
 40
1.0
176
     1
 40
1.0
176
     1
1001
ACAD
1000
AcDbSavedByObjectVersion
1070
     0
  0
VISUALSTYLE
  5
A4
102
{ACAD_REACTORS
330
99
102
}
330
99
100
AcDbVisualStyle
  2
Dim
 70
    11
177
     3
291
     1
 70
    58
 90
        2
176
     1
 90
        2
176
     1
 90
        1
176
     1
 90
        0
176
     1
 40
0.6
176
     1
 40
30.0
176
     1
 62
     7
420
 16777215
176
     1
 90
        1
176
     1
 90
        4
176
     1
 62
     7
176
     1
 62
   257
176
     1
 90
        1
176
     1
 90
        1
176
     1
 40
1.0
176
     1
 90
        8
176
     1
 62
     7
176
     1
 40
1.0
176
     1
 90
        1
176
     1
 90
        6
176
     1
 90
        2
176
     1
 62
     7
176
     1
 90
        5
176
     1
 90
        0
176
     1
 90
        0
176
     1
290
     0
176
     1
 90
        1
176
     1
 40
-50.0
176
     1
 90
        0
176
     1
290
     0
176
     1
290
     1
176
     1
290
     1
176
     1
290
     0
176
     1
290
     0
176
     1
290
     0
176
     1
290
     0
176
     1
290
     0
176
     1
290
     0
176
     1
 90
       50
176
     1
 40
0.0
176
     1
 40
1.0
176
     1
 90
        0
176
     1
 62
    18
420
        0
176
     1
 90
       50
176
     1
 90
        3
176
     1
 62
     5
420
      255
176
     1
290
     0
176
     1
 90
       50
176
     1
 90
       50
176
     1
 90
       50
176
     1
290
     0
176
     1
 90
       50
176
     1
 62
   256
176
     0
 40
1.0
176
     0
 90
        2
176
     1
  1
strokes_ogs.tif
176
     1
290
     0
176
     1
 40
1.0
176
     1
 40
1.0
176
     1
1001
ACAD
1000
AcDbSavedByObjectVersion
1070
     0
  0
VISUALSTYLE
  5
175
102
{ACAD_REACTORS
330
99
102
}
330
99
100
AcDbVisualStyle
  2
EdgeColorOff
 70
    22
177
     3
291
     1
 70
    58
 90
        2
176
     0
 90
        2
176
     0
 90
        0
176
     0
 90
        0
176
     0
 40
0.6
176
     0
 40
30.0
176
     0
 62
     7
420
 16777215
176
     0
 90
        1
176
     0
 90
        4
176
     0
 62
     7
176
     0
 62
   257
176
     0
 90
        1
176
     0
 90
        1
176
     0
 40
1.0
176
     0
 90
        8
176
     2
 62
     7
176
     0
 40
1.0
176
     0
 90
        1
176
     0
 90
        6
176
     0
 90
        2
176
     0
 62
     7
176
     0
 90
        5
176
     0
 90
        0
176
     0
 90
        0
176
     0
290
     0
176
     0
 90
        1
176
     0
 40
0.0
176
     0
 90
        0
176
     0
290
     0
176
     1
290
     1
176
     1
290
     1
176
     1
290
     0
176
     1
290
     0
176
     1
290
     0
176
     1
290
     0
176
     1
290
     0
176
     1
290
     0
176
     1
 90
       50
176
     1
 40
0.0
176
     1
 40
1.0
176
     1
 90
        0
176
     1
 62
    18
420
        0
176
     1
 90
       50
176
     1
 90
        3
176
     1
 62
     5
420
      255
176
     1
290
     0
176
     1
 90
       50
176
     1
 90
       50
176
     1
 90
       50
176
     1
290
     0
176
     1
 90
       50
176
     1
 62
   256
176
     0
 40
1.0
176
     0
 90
        2
176
     1
  1
strokes_ogs.tif
176
     1
290
     0
176
     1
 40
1.0
176
     1
 40
1.0
176
     1
1001
ACAD
1000
AcDbSavedByObjectVersion
1070
     0
  0
VISUALSTYLE
  5
A8
102
{ACAD_REACTORS
330
99
102
}
330
99
100
AcDbVisualStyle
  2
Facepattern
 70
    15
177
     3
291
     1
 70
    58
 90
        2
176
     1
 90
        2
176
     1
 90
        1
176
     1
 90
        0
176
     1
 40
0.6
176
     1
 40
30.0
176
     1
 62
     7
420
 16777215
176
     1
 90
        1
176
     1
 90
        4
176
     1
 62
     7
176
     1
 62
   257
176
     1
 90
        1
176
     1
 90
        1
176
     1
 40
1.0
176
     1
 90
        8
176
     1
 62
     7
176
     1
 40
1.0
176
     1
 90
        1
176
     1
 90
        6
176
     1
 90
        2
176
     1
 62
     7
176
     1
 90
        5
176
     1
 90
        0
176
     1
 90
        0
176
     1
290
     0
176
     1
 90
        1
176
     1
 40
0.0
176
     1
 90
        0
176
     1
290
     0
176
     1
290
     1
176
     1
290
     1
176
     1
290
     0
176
     1
290
     0
176
     1
290
     0
176
     1
290
     0
176
     1
290
     0
176
     1
290
     0
176
     1
 90
       50
176
     1
 40
0.0
176
     1
 40
1.0
176
     1
 90
        0
176
     1
 62
    18
420
        0
176
     1
 90
       50
176
     1
 90
        3
176
     1
 62
     5
420
      255
176
     1
290
     0
176
     1
 90
       50
176
     1
 90
       50
176
     1
 90
       50
176
     1
290
     0
176
     1
 90
       50
176
     1
 62
   256
176
     0
 40
1.0
176
     0
 90
        2
176
     1
  1
strokes_ogs.tif
176
     1
290
     0
176
     1
 40
1.0
176
     1
 40
1.0
176
     1
1001
ACAD
1000
AcDbSavedByObjectVersion
1070
     0
  0
VISUALSTYLE
  5
9A
102
{ACAD_REACTORS
330
99
102
}
330
99
100
AcDbVisualStyle
  2
Flat
 70
     0
177
     3
291
     1
 70
    58
 90
        2
176
     1
 90
        1
176
     1
 90
        1
176
     1
 90
        2
176
     1
 40
0.6
176
     1
 40
30.0
176
     1
 62
     7
420
 16777215
176
     1
 90
        0
176
     1
 90
        0
176
     1
 62
     7
176
     1
 62
   257
176
     1
 90
        1
176
     1
 90
        1
176
     1
 40
1.0
176
     1
 90
        8
176
     1
 62
     7
176
     1
 40
1.0
176
     1
 90
        1
176
     1
 90
        6
176
     1
 90
        2
176
     1
 62
     7
176
     1
 90
        5
176
     1
 90
        0
176
     1
 90
        0
176
     1
290
     0
176
     1
 90
       13
176
     1
 40
0.0
176
     1
 90
        0
176
     1
290
     0
176
     1
290
     1
176
     1
290
     1
176
     1
290
     0
176
     1
290
     0
176
     1
290
     0
176
     1
290
     0
176
     1
290
     0
176
     1
290
     0
176
     1
 90
       50
176
     1
 40
0.0
176
     1
 40
1.0
176
     1
 90
        0
176
     1
 62
    18
420
        0
176
     1
 90
       50
176
     1
 90
        3
176
     1
 62
     5
420
      255
176
     1
290
     0
176
     1
 90
       50
176
     1
 90
       50
176
     1
 90
       50
176
     1
290
     0
176
     1
 90
       50
176
     1
 62
   256
176
     0
 40
1.0
176
     0
 90
        2
176
     1
  1
strokes_ogs.tif
176
     1
290
     0
176
     1
 40
1.0
176
     1
 40
1.0
176
     1
1001
ACAD
1000
AcDbSavedByObjectVersion
1070
     0
  0
VISUALSTYLE
  5
9B
102
{ACAD_REACTORS
330
99
102
}
330
99
100
AcDbVisualStyle
  2
FlatWithEdges
 70
     1
177
     3
291
     1
 70
    58
 90
        2
176
     1
 90
        1
176
     1
 90
        1
176
     1
 90
        2
176
     1
 40
0.6
176
     1
 40
30.0
176
     1
 62
     7
420
 16777215
176
     1
 90
        1
176
     1
 90
        0
176
     1
 62
     7
176
     1
 62
   257
176
     1
 90
        1
176
     1
 90
        1
176
     1
 40
1.0
176
     1
 90
        0
176
     1
 62
   257
176
     1
 40
1.0
176
     1
 90
        1
176
     1
 90
        6
176
     1
 90
        2
176
     1
 62
     7
176
     1
 90
        5
176
     1
 90
        0
176
     1
 90
        0
176
     1
290
     0
176
     1
 90
       13
176
     1
 40
0.0
176
     1
 90
        0
176
     1
290
     0
176
     1
290
     1
176
     1
290
     1
176
     1
290
     0
176
     1
290
     0
176
     1
290
     0
176
     1
290
     0
176
     1
290
     0
176
     1
290
     0
176
     1
 90
       50
176
     1
 40
0.0
176
     1
 40
1.0
176
     1
 90
        0
176
     1
 62
    18
420
        0
176
     1
 90
       50
176
     1
 90
        3
176
     1
 62
     5
420
      255
176
     1
290
     0
176
     1
 90
       50
176
     1
 90
       50
176
     1
 90
       50
176
     1
290
     0
176
     1
 90
       50
176
     1
 62
   256
176
     0
 40
1.0
176
     0
 90
        2
176
     1
  1
strokes_ogs.tif
176
     1
290
     0
176
     1
 40
1.0
176
     1
 40
1.0
176
     1
1001
ACAD
1000
AcDbSavedByObjectVersion
1070
     0
  0
VISUALSTYLE
  5
9C
102
{ACAD_REACTORS
330
99
102
}
330
99
100
AcDbVisualStyle
  2
Gouraud
 70
     2
177
     3
291
     1
 70
    58
 90
        2
176
     1
 90
        2
176
     1
 90
        1
176
     1
 90
        2
176
     1
 40
0.6
176
     1
 40
30.0
176
     1
 62
     7
420
 16777215
176
     1
 90
        0
176
     1
 90
        0
176
     1
 62
     7
176
     1
 62
   257
176
     1
 90
        1
176
     1
 90
        1
176
     1
 40
1.0
176
     1
 90
        0
176
     1
 62
     7
176
     1
 40
1.0
176
     1
 90
        1
176
     1
 90
        6
176
     1
 90
        2
176
     1
 62
     7
176
     1
 90
        5
176
     1
 90
        0
176
     1
 90
        0
176
     1
290
     0
176
     1
 90
       13
176
     1
 40
0.0
176
     1
 90
        0
176
     1
290
     0
176
     1
290
     1
176
     1
290
     1
176
     1
290
     0
176
     1
290
     0
176
     1
290
     0
176
     1
290
     0
176
     1
290
     0
176
     1
290
     0
176
     1
 90
       50
176
     1
 40
0.0
176
     1
 40
1.0
176
     1
 90
        0
176
     1
 62
    18
420
        0
176
     1
 90
       50
176
     1
 90
        3
176
     1
 62
     5
420
      255
176
     1
290
     0
176
     1
 90
       50
176
     1
 90
       50
176
     1
 90
       50
176
     1
290
     0
176
     1
 90
       50
176
     1
 62
   256
176
     0
 40
1.0
176
     0
 90
        2
176
     1
  1
strokes_ogs.tif
176
     1
290
     0
176
     1
 40
1.0
176
     1
 40
1.0
176
     1
1001
ACAD
1000
AcDbSavedByObjectVersion
1070
     0
  0
VISUALSTYLE
  5
9D
102
{ACAD_REACTORS
330
99
102
}
330
99
100
AcDbVisualStyle
  2
GouraudWithEdges
 70
     3
177
     3
291
     1
 70
    58
 90
        2
176
     1
 90
        2
176
     1
 90
        1
176
     1
 90
        2
176
     1
 40
0.6
176
     1
 40
30.0
176
     1
 62
     7
420
 16777215
176
     1
 90
        1
176
     1
 90
        0
176
     1
 62
     7
176
     1
 62
   257
176
     1
 90
        1
176
     1
 90
        1
176
     1
 40
1.0
176
     1
 90
        0
176
     1
 62
   257
176
     1
 40
1.0
176
     1
 90
        1
176
     1
 90
        6
176
     1
 90
        2
176
     1
 62
     7
176
     1
 90
        5
176
     1
 90
        0
176
     1
 90
        0
176
     1
290
     0
176
     1
 90
       13
176
     1
 40
0.0
176
     1
 90
        0
176
     1
290
     0
176
     1
290
     1
176
     1
290
     1
176
     1
290
     0
176
     1
290
     0
176
     1
290
     0
176
     1
290
     0
176
     1
290
     0
176
     1
290
     0
176
     1
 90
       50
176
     1
 40
0.0
176
     1
 40
1.0
176
     1
 90
        0
176
     1
 62
    18
420
        0
176
     1
 90
       50
176
     1
 90
        3
176
     1
 62
     5
420
      255
176
     1
290
     0
176
     1
 90
       50
176
     1
 90
       50
176
     1
 90
       50
176
     1
290
     0
176
     1
 90
       50
176
     1
 62
   256
176
     0
 40
1.0
176
     0
 90
        2
176
     1
  1
strokes_ogs.tif
176
     1
290
     0
176
     1
 40
1.0
176
     1
 40
1.0
176
     1
1001
ACAD
1000
AcDbSavedByObjectVersion
1070
     0
  0
VISUALSTYLE
  5
A1
102
{ACAD_REACTORS
330
99
102
}
330
99
100
AcDbVisualStyle
  2
Hidden
 70
     6
177
     3
291
     0
 70
    58
 90
        1
176
     1
 90
        2
176
     1
 90
        2
176
     1
 90
        0
176
     1
 40
0.6
176
     1
 40
30.0
176
     1
 62
     7
420
 16777215
176
     1
 90
        2
176
     1
 90
        2
176
     1
 62
     7
176
     1
 62
   257
176
     1
 90
        2
176
     1
 90
        1
176
     1
 40
40.0
176
     1
 90
        0
176
     1
 62
   257
176
     1
 40
1.0
176
     1
 90
        1
176
     1
 90
        6
176
     1
 90
        2
176
     1
 62
     7
176
     1
 90
        3
176
     1
 90
        0
176
     1
 90
        0
176
     1
290
     0
176
     1
 90
        1
176
     1
 40
0.0
176
     1
 90
        0
176
     1
290
     0
176
     1
290
     1
176
     1
290
     1
176
     1
290
     0
176
     1
290
     0
176
     1
290
     0
176
     1
290
     0
176
     1
290
     0
176
     1
290
     0
176
     1
 90
       50
176
     1
 40
0.0
176
     1
 40
1.0
176
     1
 90
        0
176
     1
 62
    18
420
        0
176
     1
 90
       50
176
     1
 90
        3
176
     1
 62
     5
420
      255
176
     1
290
     0
176
     1
 90
       50
176
     1
 90
       50
176
     1
 90
       50
176
     1
290
     0
176
     1
 90
       50
176
     1
 62
   256
176
     0
 40
1.0
176
     0
 90
        2
176
     1
  1
strokes_ogs.tif
176
     1
290
     0
176
     1
 40
1.0
176
     1
 40
1.0
176
     1
1001
ACAD
1000
AcDbSavedByObjectVersion
1070
     0
  0
VISUALSTYLE
  5
173
102
{ACAD_REACTORS
330
99
102
}
330
99
100
AcDbVisualStyle
  2
JitterOff
 70
    20
177
     3
291
     1
 70
    58
 90
        2
176
     0
 90
        2
176
     0
 90
        0
176
     0
 90
        0
176
     0
 40
0.6
176
     0
 40
30.0
176
     0
 62
     7
420
 16777215
176
     0
 90
        1
176
     0
 90
        4
176
     0
 62
     7
176
     0
 62
   257
176
     0
 90
        1
176
     0
 90
        1
176
     0
 40
1.0
176
     0
 90
       10
176
     2
 62
     7
176
     0
 40
1.0
176
     0
 90
        1
176
     0
 90
        6
176
     0
 90
        2
176
     0
 62
     7
176
     0
 90
        5
176
     0
 90
        0
176
     0
 90
        0
176
     0
290
     0
176
     0
 90
        1
176
     0
 40
0.0
176
     0
 90
        0
176
     0
290
     0
176
     1
290
     1
176
     1
290
     1
176
     1
290
     0
176
     1
290
     0
176
     1
290
     0
176
     1
290
     0
176
     1
290
     0
176
     1
290
     0
176
     1
 90
       50
176
     1
 40
0.0
176
     1
 40
1.0
176
     1
 90
        0
176
     1
 62
    18
420
        0
176
     1
 90
       50
176
     1
 90
        3
176
     1
 62
     5
420
      255
176
     1
290
     0
176
     1
 90
       50
176
     1
 90
       50
176
     1
 90
       50
176
     1
290
     0
176
     1
 90
       50
176
     1
 62
   256
176
     0
 40
1.0
176
     0
 90
        2
176
     1
  1
strokes_ogs.tif
176
     1
290
     0
176
     1
 40
1.0
176
     1
 40
1.0
176
     1
1001
ACAD
1000
AcDbSavedByObjectVersion
1070
     0
  0
VISUALSTYLE
  5
A7
102
{ACAD_REACTORS
330
99
102
}
330
99
100
AcDbVisualStyle
  2
Linepattern
 70
    14
177
     3
291
     1
 70
    58
 90
        2
176
     1
 90
        2
176
     1
 90
        1
176
     1
 90
        0
176
     1
 40
0.6
176
     1
 40
30.0
176
     1
 62
     7
420
 16777215
176
     1
 90
        1
176
     1
 90
        4
176
     1
 62
     7
176
     1
 62
   257
176
     1
 90
        7
176
     1
 90
        7
176
     1
 40
1.0
176
     1
 90
        8
176
     1
 62
     7
176
     1
 40
1.0
176
     1
 90
        1
176
     1
 90
        6
176
     1
 90
        2
176
     1
 62
     7
176
     1
 90
        5
176
     1
 90
        0
176
     1
 90
        0
176
     1
290
     0
176
     1
 90
        1
176
     1
 40
0.0
176
     1
 90
        0
176
     1
290
     0
176
     1
290
     1
176
     1
290
     1
176
     1
290
     0
176
     1
290
     0
176
     1
290
     0
176
     1
290
     0
176
     1
290
     0
176
     1
290
     0
176
     1
 90
       50
176
     1
 40
0.0
176
     1
 40
1.0
176
     1
 90
        0
176
     1
 62
    18
420
        0
176
     1
 90
       50
176
     1
 90
        3
176
     1
 62
     5
420
      255
176
     1
290
     0
176
     1
 90
       50
176
     1
 90
       50
176
     1
 90
       50
176
     1
290
     0
176
     1
 90
       50
176
     1
 62
   256
176
     0
 40
1.0
176
     0
 90
        2
176
     1
  1
strokes_ogs.tif
176
     1
290
     0
176
     1
 40
1.0
176
     1
 40
1.0
176
     1
1001
ACAD
1000
AcDbSavedByObjectVersion
1070
     0
  0
VISUALSTYLE
  5
174
102
{ACAD_REACTORS
330
99
102
}
330
99
100
AcDbVisualStyle
  2
OverhangOff
 70
    21
177
     3
291
     1
 70
    58
 90
        2
176
     0
 90
        2
176
     0
 90
        0
176
     0
 90
        0
176
     0
 40
0.6
176
     0
 40
30.0
176
     0
 62
     7
420
 16777215
176
     0
 90
        1
176
     0
 90
        4
176
     0
 62
     7
176
     0
 62
   257
176
     0
 90
        1
176
     0
 90
        1
176
     0
 40
1.0
176
     0
 90
        9
176
     2
 62
     7
176
     0
 40
1.0
176
     0
 90
        1
176
     0
 90
        6
176
     0
 90
        2
176
     0
 62
     7
176
     0
 90
        5
176
     0
 90
        0
176
     0
 90
        0
176
     0
290
     0
176
     0
 90
        1
176
     0
 40
0.0
176
     0
 90
        0
176
     0
290
     0
176
     1
290
     1
176
     1
290
     1
176
     1
290
     0
176
     1
290
     0
176
     1
290
     0
176
     1
290
     0
176
     1
290
     0
176
     1
290
     0
176
     1
 90
       50
176
     1
 40
0.0
176
     1
 40
1.0
176
     1
 90
        0
176
     1
 62
    18
420
        0
176
     1
 90
       50
176
     1
 90
        3
176
     1
 62
     5
420
      255
176
     1
290
     0
176
     1
 90
       50
176
     1
 90
       50
176
     1
 90
       50
176
     1
290
     0
176
     1
 90
       50
176
     1
 62
   256
176
     0
 40
1.0
176
     0
 90
        2
176
     1
  1
strokes_ogs.tif
176
     1
290
     0
176
     1
 40
1.0
176
     1
 40
1.0
176
     1
1001
ACAD
1000
AcDbSavedByObjectVersion
1070
     0
  0
VISUALSTYLE
  5
A3
102
{ACAD_REACTORS
330
99
102
}
330
99
100
AcDbVisualStyle
  2
Realistic
 70
     8
177
     3
291
     0
 70
    58
 90
        2
176
     1
 90
        3
176
     1
 90
        0
176
     1
 90
        2
176
     1
 40
0.6
176
     1
 40
30.0
176
     1
 62
     7
420
 16777215
176
     1
 90
        0
176
     1
 90
        0
176
     1
 62
     7
176
     1
 62
   257
176
     1
 90
        1
176
     1
 90
        1
176
     1
 40
1.0
176
     1
 90
        8
176
     1
 62
   257
176
     1
 40
1.0
176
     1
 90
        1
176
     1
 90
        6
176
     1
 90
        2
176
     1
 62
     7
176
     1
 90
        3
176
     1
 90
        0
176
     1
 90
        0
176
     1
290
     0
176
     1
 90
       13
176
     1
 40
0.0
176
     1
 90
        0
176
     1
290
     0
176
     1
290
     1
176
     1
290
     1
176
     1
290
     0
176
     1
290
     0
176
     1
290
     0
176
     1
290
     0
176
     1
290
     0
176
     1
290
     0
176
     1
 90
       50
176
     1
 40
0.0
176
     1
 40
1.0
176
     1
 90
        0
176
     1
 62
    18
420
        0
176
     1
 90
       50
176
     1
 90
        3
176
     1
 62
     5
420
      255
176
     1
290
     0
176
     1
 90
       50
176
     1
 90
       50
176
     1
 90
       50
176
     1
290
     0
176
     1
 90
       50
176
     1
 62
   256
176
     0
 40
1.0
176
     0
 90
        2
176
     1
  1
strokes_ogs.tif
176
     1
290
     0
176
     1
 40
1.0
176
     1
 40
1.0
176
     1
1001
ACAD
1000
AcDbSavedByObjectVersion
1070
     0
  0
VISUALSTYLE
  5
182
102
{ACAD_REACTORS
330
99
102
}
330
99
100
AcDbVisualStyle
  2
Shaded
 70
    27
177
     3
291
     0
 70
    58
 90
        2
176
     1
 90
        2
176
     1
 90
        1
176
     1
 90
        2
176
     1
 40
0.6
176
     1
 40
30.0
176
     1
 62
     7
420
 16777215
176
     1
 90
        0
176
     1
 90
        4
176
     1
 62
     7
176
     1
 62
   257
176
     1
 90
        1
176
     1
 90
        1
176
     1
 40
1.0
176
     1
 90
        8
176
     1
 62
   257
176
     1
 40
1.0
176
     1
 90
        1
176
     1
 90
        6
176
     1
 90
        2
176
     1
 62
     8
420
  7895160
176
     1
 90
        3
176
     1
 90
        0
176
     1
 90
        0
176
     1
290
     0
176
     1
 90
        5
176
     1
 40
0.0
176
     1
 90
        0
176
     1
290
     0
176
     1
290
     1
176
     1
290
     1
176
     1
290
     0
176
     1
290
     0
176
     1
290
     0
176
     1
290
     0
176
     1
290
     0
176
     1
290
     0
176
     1
 90
       50
176
     1
 40
0.0
176
     1
 40
1.0
176
     1
 90
        0
176
     1
 62
    18
420
        0
176
     1
 90
       50
176
     1
 90
        3
176
     1
 62
     5
420
      255
176
     1
290
     0
176
     1
 90
       50
176
     1
 90
       50
176
     1
 90
       50
176
     1
290
     0
176
     1
 90
       50
176
     1
 62
   256
176
     0
 40
1.0
176
     0
 90
        2
176
     1
  1
strokes_ogs.tif
176
     1
290
     0
176
     1
 40
1.0
176
     1
 40
1.0
176
     1
1001
ACAD
1000
AcDbSavedByObjectVersion
1070
     0
  0
VISUALSTYLE
  5
181
102
{ACAD_REACTORS
330
99
102
}
330
99
100
AcDbVisualStyle
  2
Shaded with edges
 70
    26
177
     3
291
     0
 70
    58
 90
        2
176
     1
 90
        2
176
     1
 90
        1
176
     1
 90
        2
176
     1
 40
0.6
176
     1
 40
30.0
176
     1
 62
     7
420
 16777215
176
     1
 90
        1
176
     1
 90
        2
176
     1
 62
     7
176
     1
 62
   257
176
     1
 90
        2
176
     1
 90
        1
176
     1
 40
1.0
176
     1
 90
        8
176
     1
 62
   257
176
     1
 40
1.0
176
     1
 90
        1
176
     1
 90
        6
176
     1
 90
        2
176
     1
 62
     7
176
     1
 90
        3
176
     1
 90
        0
176
     1
 90
        0
176
     1
290
     0
176
     1
 90
        5
176
     1
 40
0.0
176
     1
 90
        0
176
     1
290
     0
176
     1
290
     1
176
     1
290
     1
176
     1
290
     0
176
     1
290
     0
176
     1
290
     0
176
     1
290
     0
176
     1
290
     0
176
     1
290
     0
176
     1
 90
       50
176
     1
 40
0.0
176
     1
 40
1.0
176
     1
 90
        0
176
     1
 62
    18
420
        0
176
     1
 90
       50
176
     1
 90
        3
176
     1
 62
     5
420
      255
176
     1
290
     0
176
     1
 90
       50
176
     1
 90
       50
176
     1
 90
       50
176
     1
290
     0
176
     1
 90
       50
176
     1
 62
   256
176
     0
 40
1.0
176
     0
 90
        2
176
     1
  1
strokes_ogs.tif
176
     1
290
     0
176
     1
 40
1.0
176
     1
 40
1.0
176
     1
1001
ACAD
1000
AcDbSavedByObjectVersion
1070
     0
  0
VISUALSTYLE
  5
17E
102
{ACAD_REACTORS
330
99
102
}
330
99
100
AcDbVisualStyle
  2
Shades of Gray
 70
    23
177
     3
291
     0
 70
    58
 90
        2
176
     1
 90
        2
176
     1
 90
        3
176
     1
 90
        0
176
     1
 40
0.6
176
     1
 40
30.0
176
     1
 62
     7
420
 16777215
176
     1
 90
        2
176
     1
 90
        2
176
     1
 62
     7
176
     1
 62
     7
176
     1
 90
        1
176
     1
 90
        1
176
     1
 40
40.0
176
     1
 90
        8
176
     1
 62
     7
176
     1
 40
1.0
176
     1
 90
        1
176
     1
 90
        6
176
     1
 90
        2
176
     1
 62
     7
176
     1
 90
        3
176
     1
 90
        0
176
     1
 90
        0
176
     1
290
     0
176
     1
 90
        1
176
     1
 40
0.0
176
     1
 90
        0
176
     1
290
     0
176
     1
290
     1
176
     1
290
     1
176
     1
290
     0
176
     1
290
     0
176
     1
290
     0
176
     1
290
     0
176
     1
290
     0
176
     1
290
     0
176
     1
 90
       50
176
     1
 40
0.0
176
     1
 40
1.0
176
     1
 90
        0
176
     1
 62
    18
420
        0
176
     1
 90
       50
176
     1
 90
        3
176
     1
 62
     5
420
      255
176
     1
290
     0
176
     1
 90
       50
176
     1
 90
       50
176
     1
 90
       50
176
     1
290
     0
176
     1
 90
       50
176
     1
 62
   256
176
     0
 40
1.0
176
     0
 90
        2
176
     1
  1
strokes_ogs.tif
176
     1
290
     0
176
     1
 40
1.0
176
     1
 40
1.0
176
     1
1001
ACAD
1000
AcDbSavedByObjectVersion
1070
     0
  0
VISUALSTYLE
  5
17F
102
{ACAD_REACTORS
330
99
102
}
330
99
100
AcDbVisualStyle
  2
Sketchy
 70
    24
177
     3
291
     0
 70
    58
 90
        1
176
     1
 90
        2
176
     1
 90
        2
176
     1
 90
        0
176
     1
 40
0.6
176
     1
 40
30.0
176
     1
 62
     7
420
 16777215
176
     1
 90
        2
176
     1
 90
        2
176
     1
 62
     7
176
     1
 62
     7
176
     1
 90
        1
176
     1
 90
        1
176
     1
 40
40.0
176
     1
 90
       11
176
     1
 62
     7
176
     1
 40
1.0
176
     1
 90
        1
176
     1
 90
        6
176
     1
 90
        2
176
     1
 62
     7
176
     1
 90
        6
176
     1
 90
        0
176
     1
 90
        0
176
     1
290
     0
176
     1
 90
        1
176
     1
 40
0.0
176
     1
 90
        0
176
     1
290
     0
176
     1
290
     1
176
     1
290
     1
176
     1
290
     0
176
     1
290
     0
176
     1
290
     0
176
     1
290
     0
176
     1
290
     0
176
     1
290
     0
176
     1
 90
       50
176
     1
 40
0.0
176
     1
 40
1.0
176
     1
 90
        0
176
     1
 62
    18
420
        0
176
     1
 90
       50
176
     1
 90
        3
176
     1
 62
     5
420
      255
176
     1
290
     0
176
     1
 90
       50
176
     1
 90
       50
176
     1
 90
       50
176
     1
290
     0
176
     1
 90
       50
176
     1
 62
   256
176
     0
 40
1.0
176
     0
 90
        2
176
     1
  1
strokes_ogs.tif
176
     1
290
     0
176
     1
 40
1.0
176
     1
 40
1.0
176
     1
1001
ACAD
1000
AcDbSavedByObjectVersion
1070
     0
  0
VISUALSTYLE
  5
A6
102
{ACAD_REACTORS
330
99
102
}
330
99
100
AcDbVisualStyle
  2
Thicken
 70
    13
177
     3
291
     1
 70
    58
 90
        2
176
     1
 90
        2
176
     1
 90
        1
176
     1
 90
        0
176
     1
 40
0.6
176
     1
 40
30.0
176
     1
 62
     7
420
 16777215
176
     1
 90
        1
176
     1
 90
        4
176
     1
 62
     7
176
     1
 62
   257
176
     1
 90
        1
176
     1
 90
        1
176
     1
 40
1.0
176
     1
 90
       12
176
     1
 62
     7
176
     1
 40
1.0
176
     1
 90
        1
176
     1
 90
        6
176
     1
 90
        2
176
     1
 62
     7
176
     1
 90
        5
176
     1
 90
        0
176
     1
 90
        0
176
     1
290
     0
176
     1
 90
        1
176
     1
 40
0.0
176
     1
 90
        0
176
     1
290
     0
176
     1
290
     1
176
     1
290
     1
176
     1
290
     0
176
     1
290
     0
176
     1
290
     0
176
     1
290
     0
176
     1
290
     0
176
     1
290
     0
176
     1
 90
       50
176
     1
 40
0.0
176
     1
 40
1.0
176
     1
 90
        0
176
     1
 62
    18
420
        0
176
     1
 90
       50
176
     1
 90
        3
176
     1
 62
     5
420
      255
176
     1
290
     0
176
     1
 90
       50
176
     1
 90
       50
176
     1
 90
       50
176
     1
290
     0
176
     1
 90
       50
176
     1
 62
   256
176
     0
 40
1.0
176
     0
 90
        2
176
     1
  1
strokes_ogs.tif
176
     1
290
     0
176
     1
 40
1.0
176
     1
 40
1.0
176
     1
1001
ACAD
1000
AcDbSavedByObjectVersion
1070
     0
  0
VISUALSTYLE
  5
A0
102
{ACAD_REACTORS
330
99
102
}
330
99
100
AcDbVisualStyle
  2
Wireframe
 70
     5
177
     3
291
     0
 70
    58
 90
        0
176
     1
 90
        2
176
     1
 90
        0
176
     1
 90
        0
176
     1
 40
0.6
176
     1
 40
30.0
176
     1
 62
     7
420
 16777215
176
     1
 90
        1
176
     1
 90
        4
176
     1
 62
     7
176
     1
 62
   257
176
     1
 90
        1
176
     1
 90
        1
176
     1
 40
1.0
176
     1
 90
        0
176
     1
 62
   257
176
     1
 40
1.0
176
     1
 90
        1
176
     1
 90
        6
176
     1
 90
        2
176
     1
 62
     7
176
     1
 90
        3
176
     1
 90
        0
176
     1
 90
        0
176
     1
290
     0
176
     1
 90
        1
176
     1
 40
0.0
176
     1
 90
        0
176
     1
290
     0
176
     1
290
     1
176
     1
290
     1
176
     1
290
     0
176
     1
290
     0
176
     1
290
     0
176
     1
290
     0
176
     1
290
     0
176
     1
290
     0
176
     1
 90
       50
176
     1
 40
0.0
176
     1
 40
1.0
176
     1
 90
        0
176
     1
 62
    18
420
        0
176
     1
 90
       50
176
     1
 90
        3
176
     1
 62
     5
420
      255
176
     1
290
     0
176
     1
 90
       50
176
     1
 90
       50
176
     1
 90
       50
176
     1
290
     0
176
     1
 90
       50
176
     1
 62
   256
176
     0
 40
1.0
176
     0
 90
        2
176
     1
  1
strokes_ogs.tif
176
     1
290
     0
176
     1
 40
1.0
176
     1
 40
1.0
176
     1
1001
ACAD
1000
AcDbSavedByObjectVersion
1070
     0
  0
VISUALSTYLE
  5
180
102
{ACAD_REACTORS
330
99
102
}
330
99
100
AcDbVisualStyle
  2
X-Ray
 70
    25
177
     3
291
     0
 70
    58
 90
        2
176
     1
 90
        2
176
     1
 90
        1
176
     1
 90
        1
176
     1
 40
0.5
176
     1
 40
30.0
176
     1
 62
     7
420
 16777215
176
     1
 90
        1
176
     1
 90
        0
176
     1
 62
     7
176
     1
 62
   257
176
     1
 90
        1
176
     1
 90
        1
176
     1
 40
1.0
176
     1
 90
        8
176
     1
 62
     7
176
     1
 40
1.0
176
     1
 90
        1
176
     1
 90
        6
176
     1
 90
        2
176
     1
 62
     7
176
     1
 90
        3
176
     1
 90
        0
176
     1
 90
        0
176
     1
290
     0
176
     1
 90
       13
176
     1
 40
0.0
176
     1
 90
        0
176
     1
290
     0
176
     1
290
     1
176
     1
290
     1
176
     1
290
     0
176
     1
290
     0
176
     1
290
     0
176
     1
290
     0
176
     1
290
     0
176
     1
290
     0
176
     1
 90
       50
176
     1
 40
0.0
176
     1
 40
1.0
176
     1
 90
        0
176
     1
 62
    18
420
        0
176
     1
 90
       50
176
     1
 90
        3
176
     1
 62
     5
420
      255
176
     1
290
     0
176
     1
 90
       50
176
     1
 90
       50
176
     1
 90
       50
176
     1
290
     0
176
     1
 90
       50
176
     1
 62
   256
176
     0
 40
1.0
176
     0
 90
        2
176
     1
  1
strokes_ogs.tif
176
     1
290
     0
176
     1
 40
1.0
176
     1
 40
1.0
176
     1
1001
ACAD
1000
AcDbSavedByObjectVersion
1070
     0
  0
DICTIONARYVAR
  5
F0
102
{ACAD_REACTORS
330
66
102
}
330
66
100
DictionaryVariables
280
     0
  1
1:1
  0
DICTIONARYVAR
  5
EF
102
{ACAD_REACTORS
330
66
102
}
330
66
100
DictionaryVariables
280
     0
  1
STANDARD
  0
DICTIONARYVAR
  5
89
102
{ACAD_REACTORS
330
66
102
}
330
66
100
DictionaryVariables
280
     0
  1
STANDARD
  0
DICTIONARYVAR
  5
1B7
102
{ACAD_REACTORS
330
66
102
}
330
66
100
DictionaryVariables
280
     0
  1
Imperial24
  0
DICTIONARYVAR
  5
1B8
102
{ACAD_REACTORS
330
66
102
}
330
66
100
DictionaryVariables
280
     0
  1
Imperial24
  0
DICTIONARYVAR
  5
67
102
{ACAD_REACTORS
330
66
102
}
330
66
100
DictionaryVariables
280
     0
  1
2
  0
DICTIONARYVAR
  5
6B
102
{ACAD_REACTORS
330
66
102
}
330
66
100
DictionaryVariables
280
     0
  1
1
  0
DICTIONARYVAR
  5
14D
102
{ACAD_REACTORS
330
66
102
}
330
66
100
DictionaryVariables
280
     0
  1
0
  0
DICTIONARYVAR
  5
14E
102
{ACAD_REACTORS
330
66
102
}
330
66
100
DictionaryVariables
280
     0
  1
0
  0
DICTIONARY
  5
DCE
102
{ACAD_REACTORS
330
DCC
102
}
330
DCC
100
AcDbDictionary
281
     1
  0
DICTIONARY
  5
DCD
102
{ACAD_REACTORS
330
DCC
102
}
330
DCC
100
AcDbDictionary
281
     1
  3
2926051824
350
DC7
  3
2926051840
350
DC8
  3
2926051856
350
DC9
  3
2926051872
350
DCA
  3
2926051888
350
DCB
  0
DICTIONARY
  5
DD1
330
1AC
100
AcDbDictionary
280
     1
281
     1
  3
ACAD_XREC_ROUNDTRIP
360
DD2
  0
DICTIONARY
  5
194
330
22
100
AcDbDictionary
280
     1
281
     1
  0
DICTIONARY
  5
188
330
97
100
AcDbDictionary
280
     1
281
     1
  3
FBXASSET
360
189
  0
DICTIONARY
  5
186
330
96
100
AcDbDictionary
280
     1
281
     1
  3
FBXASSET
360
187
  0
DICTIONARY
  5
110
330
98
100
AcDbDictionary
280
     1
281
     1
  3
BUMPTILE
360
112
  3
DIFFUSETILE
360
111
  3
FBXASSET
360
18A
  3
OPACITYTILE
360
113
  3
REFLECTIONTILE
360
114
  0
DICTIONARY
  5
DCF
330
1AA
100
AcDbDictionary
280
     1
281
     1
  3
ACAD_XREC_ROUNDTRIP
360
DD0
  0
DICTIONARY
  5
104
330
87
100
AcDbDictionary
280
     1
281
     1
  3
ACAD_ROUNDTRIP_2008_TABLESTYLE_CELLSTYLEMAP
360
DC5
  0
XRECORD
  5
DC7
102
{ACAD_REACTORS
330
DCD
102
}
330
DCD
100
AcDbXrecord
280
     1
  1
AcDb_Thumbnail_Schema
102
{ATTRRECORD
341
DC8
  2
AcDbDs::TreatedAsObjectData
280
     1
291
     1
102
ATTRRECORD}
102
{ATTRRECORD
341
DC9
  2
AcDbDs::Legacy
280
     1
291
     1
102
ATTRRECORD}
  2
AcDbDs::ID
280
    10
 91
        8
102
{ATTRRECORD
341
DCA
  2
AcDs:Indexable
280
     1
291
     1
102
ATTRRECORD}
102
{ATTRRECORD
341
DCB
  2
AcDbDs::HandleAttribute
280
     7
282
     1
102
ATTRRECORD}
  2
Thumbnail_Data
280
    15
 91
        0
  0
XRECORD
  5
DC8
102
{ACAD_REACTORS
330
DCD
102
}
330
DCD
100
AcDbXrecord
280
     1
  1
AcDbDs::TreatedAsObjectDataSchema
  2
AcDbDs::TreatedAsObjectData
280
     1
 91
        0
  0
XRECORD
  5
DC9
102
{ACAD_REACTORS
330
DCD
102
}
330
DCD
100
AcDbXrecord
280
     1
  1
AcDbDs::LegacySchema
  2
AcDbDs::Legacy
280
     1
 91
        0
  0
XRECORD
  5
DCA
102
{ACAD_REACTORS
330
DCD
102
}
330
DCD
100
AcDbXrecord
280
     1
  1
AcDbDs::IndexedPropertySchema
  2
AcDs:Indexable
280
     1
 91
        0
  0
XRECORD
  5
DCB
102
{ACAD_REACTORS
330
DCD
102
}
330
DCD
100
AcDbXrecord
280
     1
  1
AcDbDs::HandleAttributeSchema
  2
AcDbDs::HandleAttribute
280
     7
 91
        1
284
     1
  0
XRECORD
  5
DD2
102
{ACAD_REACTORS
330
DD1
102
}
330
DD1
100
AcDbXrecord
280
     1
102
DISPLAYNAME
  1
Imperial24
102
FLAGS
 90
        0
  0
XRECORD
  5
189
102
{ACAD_REACTORS
330
188
102
}
330
188
100
AcDbXrecord
280
     1
 70
     1
 90
429727718
  1
508B35C9-AEE7-456F-BE74-D52651303AC6
310
504B03040A0000080000B670623B3DEE336E79000000790000001B0000006175746F6465736B2D64657369676E2D7061636B6167652E786D6C3C3F786D6C2076657273696F6E3D22312E302220656E636F64696E673D227574662D3822203F3E3C666F726D6174733E3C666F726D61743E687474703A2F2F736368656D612E
310
6175746F6465736B2E636F6D2F64657369676E2D7061636B6167652F323030393C2F666F726D61743E3C2F666F726D6174733E504B0304140006080800B670623BD486FD9CA0000000F4000000130000005B436F6E74656E745F54797065735D2E786D6C7D8EC10E82300C865F65E91D8A1E8C310C0EEA1BF002731658846E
310
D98AC1B77784ABF1D8FE5FBFBF75BBCE937A534CCEB38643598122B6FEE978D0B0485F9C41B54DDD7D022595594E1A469170414C76A4D9A4D207E29CF43ECE46F218070CC6BECC4078ACAA135ACF422C856C0E68EA1BF5669944DDD7BCDE7B1F8E415D77AECB980613C2E4AC91FC167A2B244592486606FC29C8FD7F045B9A
310
EF7053A7E60B504B0304140006080800B670623B28ED286BEB0000007C01000008000000636F72652E786D6C8D90416EC3201045AF82665B6183218D6D61A254764FD00B204C5C94182C03558F5F9C3852BBEB6A467FFE9B197D71FA9E6FE8CBACC17AD7012D0820E3B41FAD9B3A48F1826B40272956EFE32F1B20A766D3C1
310
268314D3EAD3B24BDABB685CCCAAF3A3D94515828980F42D371D04FD696655A814B3235C8B45E9AB9A4C419F5D8653B2237A1CB163DE672FD6AC209BF3C08E0D1B30EB19C3FC9D72FCC6EB231EFA33EDE96BDD341517E5064B11EDFCBCAF57A3A2194156843498524CAA0FCA5B7268F9E185D42D21A2DCEC7FA0B48CFF8492
310
759155FBBB0F2C80A4F991FB408A72CB22977B50B96EB9C91F504B0304140006080800B670623B55019EA25F0000007C00000007000000636E782E786D6C4DCB3B0E80201045D1AD90E915ED2CF8AC45050C11660C8261F98AB1B07AC9C97D42D718D865D3E909258CFD00CCE24AC6E326A164D74DC0B4128928FF32603847
310
2BA13128B1252AC747C6BAB984FC68F0B87FE8960A5C09FE86CFB69FBA01504B0304140006080800B670623B7BC41AC871010000D40300000C0000006662782F636F72652E786D6CC553ED6E8320147D15C2DF4501B56B6D90A64BBB27D80B50A5CE54C120983EFEAE1F4DD7A56BBA5FF3879273EEE59E7310BE393735EA95
310
ED2AA333CC428A91D2B9292A5D66D8BB63B0C26823B835C67D2BC348CB46657880B1E0A535BE9DA1DC68A7B403549B42CDA0EC3AE530CA6B5864B8CB3F552343E91D5474A7B095F949962A6421D0502778E72C0840D390E18DC5F170E664C205F7BE2A66B62A605A75AC94C522DDEEE3651AEF837817C741F2CE92E02D592D
310
83FD6ECB76EC7595A651C2C9D02CB8AB9A8BBADC2AE954814544691A3016D0E883256BBA58278B17BA5A53CAC9507ED3E4DBE2C9265F691747B3DCA9ADC382819091F8E1162272A8933DE82182932144F88C09DF060D8140C84E1EEA8B8F1340BDCA9DB1093085F157AA97B557309586747CD0EF0B4EA64E983A6E0EAEEFCE
310
889E9EF17847386AA94B30211D2C0FDE0D3AF9A4610EAD5536E8DD1969631B593F67E381C33F5157F17725E5A636F6BF1491F980C8FC7B90E13E8A2F504B0304140006080800B670623B70102A487D0000009D0000000B0000006662782F636E782E786D6C4DCCD10A83201886E15B91FFDC95A5C30335ACCDFB886521330D
310
A76397BF1A1DECE883878F57749FD5A3B74D2F17830472A901D9F088930B8B849267CC01754AA418F3DF0D5018572BE160506249B16C274D761E8BCFBB7A179E27F65CB39A0F14D396184C9921B81F34C3ACA1B4B99ABB6E6F062A25AA5F69DF23ACBE504B0304140006080800B670623B3610CA3329010000120200003100
310
00006662782F42384135303843342D343331462D343546312D424341352D3532343432364645413344462F636F72652E786D6C8D515B6EC32010BC0AE22B55850D0E446E848992B43E412FE000495162B07854397EA176A4F62F3F2C9A9D991D58BEBB8F37F0AD7D30CE76905418026DA553C65E3A98E219B510EC04F7CEC5
310
3F3408EC30EA0E16180A7EF12E4D0B249D8DDAC68C5AA7F4020E21E80881BCE54B0783FCD2E3500D296646B856D320AFC34557A4CAEDCC133C449F0380794839A138B47B86DB2345744D7A44594FD0E1B867883594369BFE63BF7EEF793D0B054FC9A8456E548E63CE46FB674D8A58F068C6477CE9F510B582A2C1F80D1182
310
70F349E816B32D65AFB8DD62CCEB42FF274A937A52948C8DEB66893BCB021484D7734370E5D2E9F608A3EF93F3119479ABA0E50B14B8C298119A43CCC4FCFCECB8A18B6388CEE7EF5D5D4F994BD86CBBA182D76543B9FCAE2FD7B24DF103504B0304140006080800B670623B1B8617914E0100003303000030000000666278
310
2F42384135303843342D343331462D343546312D424341352D3532343432364645413344462F636E782E786D6CD593C16EC32010447F0571AD6CE3D489D20813A9877E410FBD62D82434182CC055F3F75D1292E692438FBD206B7698593D61BEFD1E2DF982108D773D6D6B460938E5B571FB9ECE6957AD29D90A1EBC4F7736
310
4A9C1CA1A759A682EF839FA72269D8C9D92654AD71C72206887E0E0A22CAF926B15E498B01E0AA19451807D01A34B919F16B070157417138917400F2F6FA41FCF0092A45DEE414C19BDC21783E4BD39D891265658C3D8DEA00A3ACE59CBC8678ACB54CB26EEB6BD7839D7E9348BE70AD9C8321B9BCA7F9A4A26C542347DEE0
310
50F09802D22BA6749A800A394DD62899107273365E3C82CFC6A55557BC06C10774B7ABE7AEC3B0F34CF06446280E154026D0542C187BA9DAB6628BF7B6DBB0E5A65B3EB1F58631DE64BBE083F7B65CC218087E22CABB042E51D1F2268F1FE12B3EA24D40D63E9CFE00120194D60B9D5BC67FE6D39CDF37E20AF817881F504B
310
0304140006080800B670623BBFEF2E3B690500003C100000340000006662782F42384135303843342D343331462D343546312D424341352D3532343432364645413344462F6F626A656374732E786D6CAD575D739B3814FD2B0CFB0C98D84E931D4227B6938EA793B6534F3BFB90198F0099B001899144EAECAFDF231018B0
310
D37A3FFC609090EEE7B94757C1FB7D915B2F54C88CB31BDB7727B64559CC938CA53776A576CE956DBD0F03C1B9EA2DB32D460A7A63EB693B0C52C1ABD24C257447AA5C8D66EF177F5832A68CDA569C13296F6C193FD182B8A4523CA1F2D94D88226EBADBBBBEDB2C1C8A4D05299F46424B222853B014F30C52ACC6287F389C
310
D85E1878FA7B18E87FB36AFAF62AAFF667A83F635211161F291B8999FAB3D5DDC5FCDA99CF6653677679E13B8BFBC5CAF1DF4D27CBCBE5F2FAF6EE1A8AA51290642C117467871F101B91C581D77CEA2C36869F3229E68CD1B8F61F1ED6361B89092D294B90C78C4A68EB793D190E7D1D9BDEE7A91E1B95FDE9F3BCEAEFE809
310
6A6D6F9F7D4B79F4275C90E7A04248AA51D5C4C738DAE06F72885AC4796EBE65D22A88A22223B995679120E2D50EB1542F098381188D4EA111AE3DB043FF20AF6F2B4AE3D7D83D65E5AECA730D4D3BAC91BD05FEA992B565D95F549CD6069B90AB2A63EACA38A45E4B6A87D781574F86817E4C2FCCC72690D62E2729520E37
310
9BAF234797BAF6D62B3BFC781FED37BA1E4F2B2F052FA9501A3E80569BB8F6A9A364D4FA67654E6F803383981F82F21591FF84F23D9882BC896C3FDBCF8C162508933B2E0AE4C69DD43F6BD2BE38DDDBF10BF86CB4FA784D37F3AF16075E67EC9030DECA1FC0A55373F5DFF3378C591FA9BDF485C10B0A8C8BA909E5262639
310
A8E72163488806A595734C81CB77D1DE0ED7604A303B76913CEC0272F412782FF88EFF4636D8AA56DF7B322474C4B767303F625997056C7B032C473C592B36CEBD15F3F9FF5233B7ABCDC74D257624A60F8658567497B14CE1EC3C80B76FD02011038F9EE9EB0F2E12387A9C844D3F09855125116D1D731DF8B43D2CF4E0A0
310
79A020C6BE946BCE0B7EA1E1219331CD73C228AF5A2DDD31A4B1DA918CE91350854D40A71723140BFA92E94E62B0626016CEFA5864A50E5977E8753CEDBEE1CBB7F52780D20E17AF0BA0F5F9B02A3AD07DCC732EB6D1EBB661421BE0C39E21BABF0FE16D22EA6929407C8DE596724C88B749B6DB5512BC7B228ADFD7CB7EA6
310
3A22397E690BA8D5D8D4E40CEC8CDA23C2C0B7D5898640101CEC9C6D331CE328CB93CAFBBAC70A642DF70DF95155945B52F08AA973C23469FD69ADEF84F7BB18F983A8F8C90E37F5D35980B2139A1C523540813E824EF83448CF7C72B598CE97D7CEEDDDDD3B6736BFBC771677EF66CE6A7E7139F7A793E9EDF2B2B3A8B624
310
0CDA13AA5F8388264EC4A0129909F3B7F5A16CEDF08128E97D680ACA4B9BE7B7B58BB638F0B00700EF36AE8B32A705658A68F83EE897FC2B41573190D1CCAF0B92D233A47CFEB019D9809933F67DD1A5467F8CF69AD9A5AE859342D45355448C64F968A371DC2D596ADC6E43D93D1B466F877A64E2893E54F23C4B40388995
310
525E5005DA3983ED45412510D3EFCA13737B3863F74BD30F2A12E5B4B5E489A025CE25500DB855B11ACE5BBFA185D35DD48D8DC3CE7DC69F2944DB42AA6F6CF09BCA622ADD08C7A36E7C6AE18000BAB08E040135C2D21C9D75B3A91B77BB746C403F38018DFE6EC939DD92F16B40BC05294B9CDA035AAD6D330AE27FE4786B
310
8E45145EA34A75BE1C263A676A35A8ACC6297337400BF16C54EF515F3F77CB77EB3583889C754FFA29081AA98E2222ADEF05DA3E63D2EDEA8B8756C05A7FB6CABC4A91CBF325398202CC952E70A008A830324BA200D5E5EF8F5F04C75DB4B0EE3340E071C98B823333B83577596BF3849B69F2085AA0FAFA212F26BEFF5877
310
FDE622B28D88A42E49E43326DA82D31E8CB006401E1DA726059ECEC168F97A6599036306A135688F9AD2E61A6EA178F4CD51974A9F2CCB9F36FE5EBD14601068D9C3BF01504B0304140006080000B670623B000000000000000000000000350000006662782F42384135303843342D343331462D343546312D424341352D35
310
32343432364645413344462F76657274696365732E62696E504B0304140006080800B670623BF270F1330600000004000000360000006662782F42384135303843342D343331462D343546312D424341352D3532343432364645413344462F747269616E676C65732E62696E636660600000504B0304140006080000B67062
310
3B000000000000000000000000370000006662782F42384135303843342D343331462D343546312D424341352D3532343432364645413344462F617474726962757465732E62696E504B0304140006080800B670623B08DA0BD19000000041010000360000006662782F42384135303843342D343331462D343546312D4243
310
41352D3532343432364645413344462F6469726563746F72792E786D6C858F410AC3201045AF22B36F53E9A60B35CBEEBAE80D244E44489C6234F4F835464A48035D0DF398FF9F8AF63D0E6CC63039F212F8F9020C7D47C6792B21C5FE7403D62A1188E2E60C98D7234A5830286103A55745067B9D86B8A3CF9C7F90C11DE6
310
07FB144396D7B6A82D282E9A152AD114D5EF2CB866EEE831B8EEA07A7BB5A8D7D61A2BAAEB7FD5F70921FF497D00504B0304140006080800B670623B3B4606F3FE000000A00100003B0000006662782F42384135303843342D343331462D343546312D424341352D3532343432364645413344462F7265736F75726365732F
310
636F72652E786D6C8D504B6E833010BD0A9A6D65B08134808CA354A427E8052C332156828DFCA97AFC9A40A576D7CDCCE87D344F8F9FBEE647F689CE6B6B7A6039850C8DB2A336530F315C4903D94970676DF82583CCC8197B5861107C72362E3BA4AC096842428D1D7107A5F71820538F74F4E0D50D6799CB1892C2DFF345
310
AABB9C306779A2934E701F5C0A906D4FD609C2A1B7D129F4BCD858C163D4E3AED163FAA9AF1A1D88F67CA98E6D35906AA82A52BFB39ABCD5CD915C86331BD86BD3B665CD8BD52C78D0F34F46E550061C419494B6843142CB0F5677F4D0D58717DA7494F26295FF31C565FCA7296A13AA728FBBD93C0896823C09C18BB5AFB4
310
9E65A6BD762BBE01504B010214000A0000080000B670623B3DEE336E79000000790000001B00000000000000000000000000000000006175746F6465736B2D64657369676E2D7061636B6167652E786D6C504B01021400140006080800B670623BD486FD9CA0000000F40000001300000000000000000000000000B2000000
310
5B436F6E74656E745F54797065735D2E786D6C504B01021400140006080800B670623B28ED286BEB0000007C010000080000000000000000000000000083010000636F72652E786D6C504B01021400140006080800B670623B55019EA25F0000007C000000070000000000000000000000000094020000636E782E786D6C50
310
4B01021400140006080800B670623B7BC41AC871010000D40300000C00000000000000000000000000180300006662782F636F72652E786D6C504B01021400140006080800B670623B70102A487D0000009D0000000B00000000000000000000000000B30400006662782F636E782E786D6C504B01021400140006080800B6
310
70623B3610CA3329010000120200003100000000000000000000000000590500006662782F42384135303843342D343331462D343546312D424341352D3532343432364645413344462F636F72652E786D6C504B01021400140006080800B670623B1B8617914E010000330300003000000000000000000000000000D10600
310
006662782F42384135303843342D343331462D343546312D424341352D3532343432364645413344462F636E782E786D6C504B01021400140006080800B670623BBFEF2E3B690500003C10000034000000000000000000000000006D0800006662782F42384135303843342D343331462D343546312D424341352D35323434
310
32364645413344462F6F626A656374732E786D6C504B01021400140006080000B670623B0000000000000000000000003500000000000000000000000000280E00006662782F42384135303843342D343331462D343546312D424341352D3532343432364645413344462F76657274696365732E62696E504B010214001400
310
06080800B670623BF270F133060000000400000036000000000000000000000000007B0E00006662782F42384135303843342D343331462D343546312D424341352D3532343432364645413344462F747269616E676C65732E62696E504B01021400140006080000B670623B00000000000000000000000037000000000000
310
00000000000000D50E00006662782F42384135303843342D343331462D343546312D424341352D3532343432364645413344462F617474726962757465732E62696E504B01021400140006080800B670623B08DA0BD1900000004101000036000000000000000000000000002A0F00006662782F42384135303843342D3433
310
31462D343546312D424341352D3532343432364645413344462F6469726563746F72792E786D6C504B01021400140006080800B670623B3B4606F3FE000000A00100003B000000000000000000000000000E1000006662782F42384135303843342D343331462D343546312D424341352D3532343432364645413344462F72
310
65736F75726365732F636F72652E786D6C504B0506000000000E000E0080040000651100000000
  0
XRECORD
  5
187
102
{ACAD_REACTORS
330
186
102
}
330
186
100
AcDbXrecord
280
     1
 70
     1
 90
429727718
  1
887D55A9-D0DD-414E-B741-A7DCD4DA2B4C
310
504B03040A0000080000B670623B3DEE336E79000000790000001B0000006175746F6465736B2D64657369676E2D7061636B6167652E786D6C3C3F786D6C2076657273696F6E3D22312E302220656E636F64696E673D227574662D3822203F3E3C666F726D6174733E3C666F726D61743E687474703A2F2F736368656D612E
310
6175746F6465736B2E636F6D2F64657369676E2D7061636B6167652F323030393C2F666F726D61743E3C2F666F726D6174733E504B0304140006080800B670623BD486FD9CA0000000F4000000130000005B436F6E74656E745F54797065735D2E786D6C7D8EC10E82300C865F65E91D8A1E8C310C0EEA1BF002731658846E
310
D98AC1B77784ABF1D8FE5FBFBF75BBCE937A534CCEB38643598122B6FEE978D0B0485F9C41B54DDD7D022595594E1A469170414C76A4D9A4D207E29CF43ECE46F218070CC6BECC4078ACAA135ACF422C856C0E68EA1BF5669944DDD7BCDE7B1F8E415D77AECB980613C2E4AC91FC167A2B244592486606FC29C8FD7F045B9A
310
EF7053A7E60B504B0304140006080800B670623BBC1638F5EC0000007C01000008000000636F72652E786D6C8D90416EC3201045AF82665B61836BE2D8C24471DB9CA01740401C94182C03558F5F9C3852BBEB6A467FFE9B197D7EF89E6EE8CB2CC17AD7032D0820E394D7D68D3DA478C67B4007C117EFE32F1B202727D3C3
310
2A83E0E3E2D3BC49CABB685CCCAAF3DA6CA20CC14440EA969B1E82BA98491632C5EC08D76296EA2A4753D06797E194AC468F2356E77DF66CCD02825543D50CACC62D39ED70FDC68EB8FD68F6F8787A6784342D1DDA1D2F5758F068A7E77DB518198D065111D2624A31A93E69DD11D6D5EC85EC3B4278B9DAFF4069D6FF8492
310
75F1B5DADE7D600104CD8FDC0782976B16B9DC83CA75CD4DFC00504B0304140006080800B670623B55019EA25F0000007C00000007000000636E782E786D6C4DCB3B0E80201045D1AD90E915ED2CF8AC45050C11660C8261F98AB1B07AC9C97D42D718D865D3E909258CFD00CCE24AC6E326A164D74DC0B4128928FF326038
310
472BA13128B1252AC747C6BAB984FC68F0B87FE8960A5C09FE86CFB69FBA01504B0304140006080800B670623B3586FFB671010000D40300000C0000006662782F636F72652E786D6CC553ED6E8320147D15C2DF4541A76D6D90A6DDD627D80B50A4CE54C120983EFEAE1F4DD7A55BBA5FF3879273EEE59E7310B6393735EA
310
95ED2AA3731C851423A5A5292A5DE6D8BB63B0C268C39935C67D29C3488B46E578803167A535BE9D2169B453DA01AA4DA16650749D7218C91A1639EEE4876A4428BC838AEE14B6429E44A9C228041AEA38EB9C0501681A32BC313F1ECE8C4C3867DE57C5CC56054CAB8E95B298A7F12E5EEED224C8E87E11242FE936C8DE96
310
AB60BB7F4D295D66D12E5B30323473E6AAE6A24E5A259C2A308F29CD82280A68FC1E256B9AAE93F489AED694323294DF34F9B678B0C957DA3DC7B3DCA9ADC33C022123F1CD2D44E450277AD04338234388F01913BE0D1A0281909D38D4171F27807A259DB1093085F157AA17B557309586747CD0CF0B46A64E983A6E0EAEEF
310
CE881F9EF1FB8E70D44297604238581EBC1B74B249C31C5AAB6CD0BB33D2C636A27ECCC62F0EFF445DC5DF95244D6DEC7F2922F30191F9F720C37DE49F504B0304140006080800B670623B4220A0FF7D0000009D0000000B0000006662782F636E782E786D6C4DCCD10A83201886E15B91FFDCE542CB0335D0EC3E6259C84A
310
C3E9D8E5AF46073BFAE0E1E315DD675BD1DBA5978F41C2FD4600B9F088930F8B849267CC01754AA418F3DF0D50183727E164506249B1EC174D6E1ECB9A0F5D7D785E68DB8151CD286E5A5363CA6B8A39E90D36D40E96B086F55A43A544F52B1D7B86D517504B0304140006080800B670623B2FA3FEDE290100001202000031
310
0000006662782F45374635344235342D363743322D343832342D383044432D4334454645303536354442422F636F72652E786D6C8D515B6EC32010BC0AE22B55850D2E386E848994D7097A0117488A1283C5A3CAF10BB523B57FF961D1ECCCECC0F2ED7DBC816FED8371B687A4C210682B9D32F6D2C314CFA883602BB8772E
310
FEA141608751F7B0C050F08B77695A20E96CD43666D43AA5177008414708E42D5F7A18E4971E876A483133C2B59A06791D2EBA22556E679EE021FA1C00CC43CA09C5717D6274C7286AD7FB06D1AEA1A8C3873DDAD3E3E98859CB0EBB1DAF67A1E02919B5C88DCA71CCD968FFAC49110B1ECDF8882FBD1EA256503418BF2342
310
106E3E08DD60B6A1EC15771B8C795DE8FF4469524F8A92B1F1AD59E2CEB20005E1F5DC105CB9F4797B84D1F7C9F908CABC55D0F2050A5C61CC1AD2F27A26E6E767C7962E8E213A9FBF7775FDCC5CC266DB960A5E970DE5F2BBBE5CCB36C50F504B0304140006080800B670623B1B8617914E01000033030000300000006662
310
782F45374635344235342D363743322D343832342D383044432D4334454645303536354442422F636E782E786D6CD593C16EC32010447F0571AD6CE3D489D20813A9877E410FBD62D82434182CC055F3F75D1292E692438FBD206B7698593D61BEFD1E2DF982108D773D6D6B460938E5B571FB9ECE6957AD29D90A1EBC4F77
310
364A9C1CA1A759A682EF839FA72269D8C9D92654AD71C72206887E0E0A22CAF926B15E498B01E0AA19451807D01A34B919F16B070157417138917400F2F6FA41FCF0092A45DEE414C19BDC21783E4BD39D891265658C3D8DEA00A3ACE59CBC8678ACB54CB26EEB6BD7839D7E9348BE70AD9C8321B9BCA7F9A4A26C542347DE
310
E050F09802D22BA6749A800A394DD62899107273365E3C82CFC6A55557BC06C10774B7ABE7AEC3B0F34CF06446280E154026D0542C187BA9DAB6628BF7B6DBB0E5A65B3EB1F58631DE64BBE083F7B65CC218087E22CABB042E51D1F2268F1FE12B3EA24D40D63E9CFE00120194D60B9D5BC67FE6D39CDF37E20AF817881F50
310
4B0304140006080800B670623B29652116630500003C100000340000006662782F45374635344235342D363743322D343832342D383044432D4334454645303536354442422F6F626A656374732E786D6CAD575D739B3814FD2B0CFB0C989834C90EA1639B24E3E9A6EDD4D3CE3E64C623834CD8006224913AFDF57B040203
310
B65BEF871F0C12D2FD3CF7E8CA7FBFCB33E3957291B2E2D674ED8969D02262715A24B76625B7D6B569BC0F7CCE98EC2D338D82E4F4D654D366E0279C55A59E8AE99654991CCDDECFFF3444440B6A1A514684B83545F44C7362934AB2988A173B2692D8C97667BB76B3702836E1A47C1E092D09A78584A5982F20C5688C7287
310
C389E904BEA3BE07BEFAD7ABA6A75739B53F43FD69212429A20365233153D70BEF2E2E6FAC4BCF9B5ADEBB0BD79ADFCF43CBBD9A4E16EF168B9BD9DD0D140BC921495BC2E9D60C1E101B9E46BED37CEA2CD6861F3329624541A3DA7F7858DBAC25C6B4A4458C3CA654405BCFEBC970E8AAD8F43E4FD558ABEC4F9FE7557F47
310
4F506B7BFBEC5BCA367FC105710E2AB8A00A554D7CB4A30DFE26FBA86D18CBF4B75418399194A72433B274C3097F33032C554B027F2046A1932B842B0FCCC0DDCBEBDB8AD2F835768F59B9ADB24C41D30C6A64AF817F2A456D59FA83F2E3DA60137255A585BCD60EC9B7929AC18DEFD49381AF1ED30BFDB109A4B1CD488294
310
C3CDE6EBC8D185AABD6568061FEE37BB95AAC7E3CA4BCE4ACAA5820FA0D526AE7DAA2869B5EE5999531BE0CC20E6FBA07C41E43FA27CF7A6206F3CDD793B4F6B919C1462CB788EDCD893FA674CDA17AB7B3B7C019F8D561FAEE966FED562DFE98C1D12C6A9FC015C2A35D7FF3D7FC398F591DA4B5FE0BFA2C0189FEA50AE22
310
92817A1ED3020951A03432862970F976B33383259812CC8E5D240BBA801CBCF8CE2BBEE3BF910DB6AAD5F79E05123AE2DB33981FB1ACCB02B69D00CB014FD68AB573A7627EF9BFD4CC2C5C7D58557C4B22FAA88925A4DBB44825CECE3D78FB060D1231F0E885BE7D673C86A3874958F593906B5502D1563157814FDAC3420D
310
F69A070A22EC4B98E23CFF171A1E5311D12C23056555ABA53B8614563B92D17D02AAB009E8F46284624E5F53D5490C560CCCC2591FF1B45421EB0EBD8EA7ED13BE7C5D7E0428CD60FEF60779EB13E6664FF711CB185F6FDED60D139A001FF60CD1FD6D086F1D51474901E26B2CB794A343BC8ED3EDB612E0DD2351FCB65CF4
310
33D511C9E14B5B40ADC6A6263DB0336A8F700DDF56271A024E70B0B3629DE21847591E55DED73D56206AB927E46FAABC5C939C55853C274C93D69FD6FA4E78BF8B11DF898C9ECD60553FAD39283BA6F18984AA23E8884F83F45C5F5F859797B31B2B9C84A1E5B9DE9D35BFF25C6B76152E422F9C5DCC3D847F5801ED09D5AF
310
41441327A25FF15487F9EB725FB666F048A4701E9A827292E6F97569A32DF61DEC01C0BB8DCBBCCC684E0B49147C1FD54BF685A0AB18C868E6973949E819523E3DAC463660E68C7D9F55A9D1EFA3BD7A76A16AE1A810F95CE59B82A4D968A376DC2E8B44BBDD86B27B368CDE0ED548C7137DA860591A83706223A12CA712B4
310
7306DBF39C0A20A6DF95C7FAF670C6EED7A61F946493D1D6926782963813403548A78AE470DEF80D2D9CEAA26E4D1C76F60BFE74219A06527D6B82DF641A51616F703CAAC6A7160E08A00BEB4810A0274592A1B36E3675E36E978A0DE80727A0D6DF2D39A75BD27E0D8837276589537B40ABB56D5A41F48F1C6FCD3188C4EB
310
A6929D2FFB89CE995A4D00AE813BDD032DC48B56BD437DFDDC2DD7AED70C2272D63DE9A72068A45A92F0A4BE17A8A06B9366E16707AD80B1FC649459952097E74BB23805982B55E0401150A165964402AA8BDF9F3E7386BB686EDCA780C0D382E5392BF460A6EFB2C6EA1937D3F809B440D5F5435C4C5CF7A9EEFAF54564BD
310
2182DA24162F98680B4E7930C21A0079709CEAEB99A372305ABE0C0D7D6078105A83F6A0296DAEE1068A47DD1C55A9F4C9B2FC69E3EFD44B81028E963DF81B504B0304140006080000B670623B000000000000000000000000350000006662782F45374635344235342D363743322D343832342D383044432D433445464530
310
3536354442422F76657274696365732E62696E504B0304140006080800B670623BF270F1330600000004000000360000006662782F45374635344235342D363743322D343832342D383044432D4334454645303536354442422F747269616E676C65732E62696E636660600000504B0304140006080000B670623B00000000
310
0000000000000000370000006662782F45374635344235342D363743322D343832342D383044432D4334454645303536354442422F617474726962757465732E62696E504B0304140006080800B670623B08DA0BD19000000041010000360000006662782F45374635344235342D363743322D343832342D383044432D4334
310
454645303536354442422F6469726563746F72792E786D6C858F410AC3201045AF22B36F53E9A60B35CBEEBAE80D244E44489C6234F4F835464A48035D0DF398FF9F8AF63D0E6CC63039F212F8F9020C7D47C6792B21C5FE7403D62A1188E2E60C98D7234A5830286103A55745067B9D86B8A3CF9C7F90C11DE607FB144396
310
D7B6A82D282E9A152AD114D5EF2CB866EEE831B8EEA07A7BB5A8D7D61A2BAAEB7FD5F70921FF497D00504B0304140006080800B670623B6378F24DFF000000A00100003B0000006662782F45374635344235342D363743322D343832342D383044432D4334454645303536354442422F7265736F75726365732F636F72652E
310
786D6C8D504B6E833010BD0A9A6D65B0094E42641C85B639412F6099496225D8C89FAAC7AF09546A77DDCC8CDE47F3F4C4F16B7C149FE88371B603565228D06A37187BED20C50BD9437194C23B177FC9A0B06AC40E6618A4B87A97A615D2CE46B431A3D60DB8822A048C50E8473E3A08FA86A32A558A5911EEE5A4F45D5DB1
310
6465A6B34E8A107D0E502C4FE609D26370C96B0CA25A58295232C3AA3143FE692E063D485EF7F5AEE71BD2D2F39634AFFC44DAF7DD9E9CCE6F9CD25DCBFA762BAAD92C4534E34F46ED51451C40D694B6843142EB0FD61C283F34FC85EE0F948A6A96FF31A569F8A729191B37F51A77B105902C0779125254735F793DCBCC7B
310
EE567E03504B010214000A0000080000B670623B3DEE336E79000000790000001B00000000000000000000000000000000006175746F6465736B2D64657369676E2D7061636B6167652E786D6C504B01021400140006080800B670623BD486FD9CA0000000F40000001300000000000000000000000000B20000005B436F6E
310
74656E745F54797065735D2E786D6C504B01021400140006080800B670623BBC1638F5EC0000007C010000080000000000000000000000000083010000636F72652E786D6C504B01021400140006080800B670623B55019EA25F0000007C000000070000000000000000000000000095020000636E782E786D6C504B010214
310
00140006080800B670623B3586FFB671010000D40300000C00000000000000000000000000190300006662782F636F72652E786D6C504B01021400140006080800B670623B4220A0FF7D0000009D0000000B00000000000000000000000000B40400006662782F636E782E786D6C504B01021400140006080800B670623B2F
310
A3FEDE290100001202000031000000000000000000000000005A0500006662782F45374635344235342D363743322D343832342D383044432D4334454645303536354442422F636F72652E786D6C504B01021400140006080800B670623B1B8617914E010000330300003000000000000000000000000000D2060000666278
310
2F45374635344235342D363743322D343832342D383044432D4334454645303536354442422F636E782E786D6C504B01021400140006080800B670623B29652116630500003C10000034000000000000000000000000006E0800006662782F45374635344235342D363743322D343832342D383044432D4334454645303536
310
354442422F6F626A656374732E786D6C504B01021400140006080000B670623B0000000000000000000000003500000000000000000000000000230E00006662782F45374635344235342D363743322D343832342D383044432D4334454645303536354442422F76657274696365732E62696E504B01021400140006080800
310
B670623BF270F13306000000040000003600000000000000000000000000760E00006662782F45374635344235342D363743322D343832342D383044432D4334454645303536354442422F747269616E676C65732E62696E504B01021400140006080000B670623B0000000000000000000000003700000000000000000000
310
000000D00E00006662782F45374635344235342D363743322D343832342D383044432D4334454645303536354442422F617474726962757465732E62696E504B01021400140006080800B670623B08DA0BD190000000410100003600000000000000000000000000250F00006662782F45374635344235342D363743322D34
310
3832342D383044432D4334454645303536354442422F6469726563746F72792E786D6C504B01021400140006080800B670623B6378F24DFF000000A00100003B00000000000000000000000000091000006662782F45374635344235342D363743322D343832342D383044432D4334454645303536354442422F7265736F75
310
726365732F636F72652E786D6C504B0506000000000E000E0080040000611100000000
  0
XRECORD
  5
112
102
{ACAD_REACTORS
330
110
102
}
330
110
100
AcDbXrecord
280
     1
270
     1
271
     1
  0
XRECORD
  5
111
102
{ACAD_REACTORS
330
110
102
}
330
110
100
AcDbXrecord
280
     1
270
     1
271
     1
  0
XRECORD
  5
18A
102
{ACAD_REACTORS
330
110
102
}
330
110
100
AcDbXrecord
280
     1
 70
     0
 90
1778669749
  1
9BF507EE-FAF7-4A99-A33D-4EE51894BC40
310
504B03040A0000080000B670623B3DEE336E79000000790000001B0000006175746F6465736B2D64657369676E2D7061636B6167652E786D6C3C3F786D6C2076657273696F6E3D22312E302220656E636F64696E673D227574662D3822203F3E3C666F726D6174733E3C666F726D61743E687474703A2F2F736368656D612E
310
6175746F6465736B2E636F6D2F64657369676E2D7061636B6167652F323030393C2F666F726D61743E3C2F666F726D6174733E504B0304140006080800B670623BD486FD9CA0000000F4000000130000005B436F6E74656E745F54797065735D2E786D6C7D8EC10E82300C865F65E91D8A1E8C310C0EEA1BF002731658846E
310
D98AC1B77784ABF1D8FE5FBFBF75BBCE937A534CCEB38643598122B6FEE978D0B0485F9C41B54DDD7D022595594E1A469170414C76A4D9A4D207E29CF43ECE46F218070CC6BECC4078ACAA135ACF422C856C0E68EA1BF5669944DDD7BCDE7B1F8E415D77AECB980613C2E4AC91FC167A2B244592486606FC29C8FD7F045B9A
310
EF7053A7E60B504B0304140006080800B670623BCA089DFFEC0000007C01000008000000636F72652E786D6C8D90416E83301045AF62CDB632D8402020E32882F604BD80653BC44AB011B6AB1EBF262152BBEB6A467FFE9B197D76FA9EEFE84BAFDE38DB03CD08206DA553C64E3DC470C1474027CE56E7C22F1B202B66DDC3
310
260367D3EAE2B24BD2D9A06D48AA754AEFA2F05E0740F29E9A1EBCBCEA59642286E4F0B76C11F226269DD15797E0188D42CF2346A57DE662F40ABCAEC77628C6120F654571D50C04B7F5B9C1E3997CD4F550BE3745C3F20DE62C98F9755FAE5A04AD801784B498524C8A4F5A75E4D055873772EC0861F966FF03C545FD138A
310
C686B2D8DF7D621E384D8F3C069CE55B16A93C824A75CB8DFF00504B0304140006080800B670623B55019EA25F0000007C00000007000000636E782E786D6C4DCB3B0E80201045D1AD90E915ED2CF8AC45050C11660C8261F98AB1B07AC9C97D42D718D865D3E909258CFD00CCE24AC6E326A164D74DC0B4128928FF326038
310
472BA13128B1252AC747C6BAB984FC68F0B87FE8960A5C09FE86CFB69FBA01504B0304140006080800B670623B68FC0B7272010000D40300000C0000006662782F636F72652E786D6CC5535B6E833010BC8AE5DF0A6C1E8124328E22D29EA01770C0A128602363A31CBFCB234A53A555FA553EC09AD9F5CE8C31DB5DDA060D
310
D2F4B556190E7C8A9154852E6B5565D8D993B7C668C799D1DA7E29C3488956667884316795D1AE5BA0422B2B950554E9522EA0E87B69312A1A5864B82F3E642B7CE12C54F467BF13C55954D20F7CA0A18EB3DE1A1080E621E31BF3D3F1C2C88C73E65C5D2E6C5DC2B4FA544B8379921C36797888BC3C8A032F4E73EA6D927D
310
EA1DF6F42D49F2E8350D5346C666CE6CDD5ED515460A2B4BCC434A375E1078347C0FE22D5D6DE3D50B5D6F2965642CBF6B725DF96493AB958DC245EEDCD6631E809089F8E61622B2A81703E8219C913144F84C09DF070D8140C8561C9BAB8F3340832CAC363130A576376A108D933095FA747AD0CF0B46E64E983A6D0EAE1F
310
CE089F9EF1FB8E70D44255604258581E9D1D75B259C3125A278D37D80B52DAB4A279CEC62F0EFF44DDC43F9454E8469BFF5244960322CBEF41C6FBC83F01504B0304140006080800B670623B0F71DDB67E0000009D0000000B0000006662782F636E782E786D6C4DCCD10A83201886E15B91FFDCA54DB73F502386BB8F5816
310
32D3703976F9ABD1C18E3E78F87855FB990379BBFCF2296AE02706C4C5471A7C9C349475A408A4352AA7B4FEDD80C47E761A7606A3A69CCA72D0E0C6BE8475D3E0E3F3409428EA6B27A84079A782899AA2EC1A7AE3ECCC2FD858CB2D544655BFD2B67BD87C01504B0304140006080800B670623BE134B4FB28010000120200
310
00310000006662782F38353834323741342D343835462D343034322D383541392D4331303331363839454531452F636F72652E786D6C8D515B6EC32010BC0AE22B55850D0EA424C24451959EA0172086A42831583CAA1CBF503B52FB971F16CDCECC0EACD8DFC71BF836215AEF7A481A0C817183D7D65D7A98D3197108F652
310
04EFD31F1A044E8DA6871586525C82CFD3020DDE25E352419DD76601558C264130DCCAA58771F832A36A544E8511AFCDA486ABBA988634A55D7852C4144A00300FA927949C71DABD1D28A29C7D208A6987383B6CD13BC16BB2E1DBE3911C453B0BA5C8D9EA456E758963CFD684674DAA588A64C747FC2118958C86B2C3788B
310
0841B8FB247487D98EB257CC77188BB6D2FF89F2A49F1465EBD2BA5BE2CEB2082511EDDC9042FB7CBA3DC298FBE4430275DE2A9AE1054ADC60CC08E3A29D89E5F9C5714317C7987C28DFBBBA9E0A97B0D97643A568EB864AF95D5FA9759BF207504B0304140006080800B670623B1B8617914E010000330300003000000066
310
62782F38353834323741342D343835462D343034322D383541392D4331303331363839454531452F636E782E786D6CD593C16EC32010447F0571AD6CE3D489D20813A9877E410FBD62D82434182CC055F3F75D1292E692438FBD206B7698593D61BEFD1E2DF982108D773D6D6B460938E5B571FB9ECE6957AD29D90A1EBC4F
310
77364A9C1CA1A759A682EF839FA72269D8C9D92654AD71C72206887E0E0A22CAF926B15E498B01E0AA19451807D01A34B919F16B070157417138917400F2F6FA41FCF0092A45DEE414C19BDC21783E4BD39D891265658C3D8DEA00A3ACE59CBC8678ACB54CB26EEB6BD7839D7E9348BE70AD9C8321B9BCA7F9A4A26C542347
310
DEE050F09802D22BA6749A800A394DD62899107273365E3C82CFC6A55557BC06C10774B7ABE7AEC3B0F34CF06446280E154026D0542C187BA9DAB6628BF7B6DBB0E5A65B3EB1F58631DE64BBE083F7B65CC218087E22CABB042E51D1F2268F1FE12B3EA24D40D63E9CFE00120194D60B9D5BC67FE6D39CDF37E20AF817881F
310
504B0304140006080800B670623B5933D422630500003B100000340000006662782F38353834323741342D343835462D343034322D383541392D4331303331363839454531452F6F626A656374732E786D6CAD575B6FA33814FE2B887D0642934E9B156594264D158D3A534DD4D13E548A0C38942D60649B4EBABF7E3F8321
310
40924EF6928780CDF1B97EE762EFF32E4B8D37CA45C2F21BD3B547A641F39045491EDF98A5DC5AD7A6F1D9F73863B243661A39C9E88DA9B64DDF8B392B0BBD15D12D295339D85DDEFE618890E6D434C2940871638AF08566C426A5641115AF764424B1E3EDCE76ED9AB0CF36E6A47819302D08A7B984A6D8CFC1C5A89572FB
310
CB91E9F89EA3BEFB9EFAD754E3D3544E654F5F7E920B49F2F040D880CDD89D2CEE2E2EA7D6E56432B6269F2E5CEB7679BBB0DCABF168FE693E9FCEEEA6102C240727AD09A75BD3BF876F78127A4EFDA9D5582B7E4CA590E5390D2BFB6161A5B3E618D182E611E2985001691DAB47FDA5AB7CD3F93C566B2DB2BB7D9E55DD13
310
1D468DEECDB3AB290BFE8409E21C54704115AA6AFF68436BFC8DF65E0B184BF5B74418199194272435D224E084BF9B3E481589EFF5D828747285706581E9BB7B7E5D5D911ABFC6EE312DB7659A2A689A7E85EC0DF04FA5A8344BFEA2FCB834E8845895492EAFB541F2BDA0A63FF59C6AD3F7D4637CA13FD68E34B629891172
310
98597F1D183A57B9B75A98FE9765B05BAB7C3C2EBCE0ACA05C2AF8005A4DE09AA7F29216EB9E15397500C6F47CBE77CA7778FE2BD277AF0AE2C693DD6437D1522427B9D8329E2136F6A8FA19A3E6C56ADF0E5F50CF06D48734EDCEBF22F69C56D97EC138153F804B85E6FABFC7AFEFB32E523BE1F3BD372418E363EDCA7548
310
52949E8724474014288D94610BB57C1BEC4C7F854A89CA8E5324F55B871CBC78CE1BBEE3BFE68D6A5589EF3C730474506FCFA8FCF0659516D0ED04580EEA6425581B77CAE797FF4BCECC16EB2FEB926F49481F746159D06D922712BD730FDEAE42BD40F42C7AA5EF3F198F60E86110D6DD20645A9480B795CF95E3E3A659A8
310
C55E724F408873315335CFFB8584874484344D494E59D94869DB90C26A5B64F49C802CAC1D3ABE18A098D3B7444D123D8A9E5AE8F5214F0AE5B2B6E9B575DA3E61CBD3EA2B4009FA940524DD1305FB6A1FB294F14DF0BEA90BA109ECE1481FDC3FFAE8D60E75141700BE82725371B4873751B2DD960265F788137FACE6DD40
310
B575E4F0A5C99F46629D92131467A41EE11ABD8D4CCC039CA0AFB37C93A08B232B8F0AEFCA1E0A1015DF13FC83322B362463652ECF71D3A8B1A7D1BE65DE1D62C44F22C317D35F574FEB16153BA2D13E543D10A80E74C4A65E78A6B7CBCBD1D5DD9DB59C2DAFACC96C3AB566E3F1C29ADCDD5DBAD7D3C9ED7C822ED74F80A6
310
41755310DE4443F44A9E68373FADF6596BFA0F440AE7BECE2727AE9F4F2B1B53B1E7E00CF0DD1E5C65454A339A4BA2D0FBA05ED2EF0443458F47BDBFCA484CCFE0F2ED7E3DD0013B679C7B5499467F0ECEEADDB9CA85A34CE44B99053949D2C1416DB85DE4B136BB7165FBAC0B7AB3542BED4F8CA182A549847A1319316519
310
95A83A67147B9E5101C47487F2485F1ECE38FD568F839204296D3479219888530154036E6528FBFBC66F98E0D4107563A2D7D9AFF8D389681A08F58D89F22693900A3B407754734FC51C10C010D6D640809EE4718AC1BA3ED4AEDB53CA37283F68805A7E4B72CEB0A4EDEAD5DD8C14059A76AFAA56BA6901E13F32BC51C720
310
12AF41295B5BF61BAD3195181FB506E6B40F4C10AF5AF40EF9F5B159AE5DD1F43C72D635E94310D45C2D49785C5D0B94D3B54AB3C5A38349C0587D338AB48C11CBF339599C02CCA54A70A008A8D03C0B2201D5F9EFCF8F9CE12A9A19CB0410789EB32C63B95ECCF455D658BFE0621A3DA32C5075FB101723D77DAE867E7D0F
310
D90444509B44E2151B4DC2290B065803200FBAA9BE9D392A0603F2D5C2D00D6302A615680F66D2FA166E2079D4C551A54AB758161FCEFD4E450A14704CECFEDF504B0304140006080000B670623B000000000000000000000000350000006662782F38353834323741342D343835462D343034322D383541392D4331303331
310
363839454531452F76657274696365732E62696E504B0304140006080800B670623BF270F1330600000004000000360000006662782F38353834323741342D343835462D343034322D383541392D4331303331363839454531452F747269616E676C65732E62696E636660600000504B0304140006080000B670623B000000
310
000000000000000000370000006662782F38353834323741342D343835462D343034322D383541392D4331303331363839454531452F617474726962757465732E62696E504B0304140006080800B670623B08DA0BD19000000041010000360000006662782F38353834323741342D343835462D343034322D383541392D43
310
31303331363839454531452F6469726563746F72792E786D6C858F410AC3201045AF22B36F53E9A60B35CBEEBAE80D244E44489C6234F4F835464A48035D0DF398FF9F8AF63D0E6CC63039F212F8F9020C7D47C6792B21C5FE7403D62A1188E2E60C98D7234A5830286103A55745067B9D86B8A3CF9C7F90C11DE607FB1443
310
96D7B6A82D282E9A152AD114D5EF2CB866EEE831B8EEA07A7BB5A8D7D61A2BAAEB7FD5F70921FF497D00504B0304140006080800B670623BD9A3B367FE000000A00100003B0000006662782F38353834323741342D343835462D343034322D383541392D4331303331363839454531452F7265736F75726365732F636F7265
310
2E786D6C8D504B6E833010BD0A9A6D65B01D0201194711694FD00B586642AD043BF2A7EAF16B122AB5BB6E6646EFA3797AE2F8B5DC8A4FF4C1383B002B291468B59B8C9D0748F1420E501CA5F0CEC55F3228AC5A708015062966EFD27D83B4B3116DCCA875136EA00A012314FA968F0182FEC045952AC5AC08D7F2AEF455CD
310
58B232D3592745883E07289E4FD609D26370C96B0CA27AB252A464A64D63A6FCD35C0C7A904D73EE467EE664DCD58CD4ED4849D79C5A723ED1B7A61977AF2D6F45B59AA58866F9C9A83DAA8813484E6947182394BFB3BAA7FBBEDEBFD0434FA9A856F91F53BA4FFF342563E38E6F719FB60092E5200F428A6AED2BAF479979
310
AFDDCA6F504B010214000A0000080000B670623B3DEE336E79000000790000001B00000000000000000000000000000000006175746F6465736B2D64657369676E2D7061636B6167652E786D6C504B01021400140006080800B670623BD486FD9CA0000000F40000001300000000000000000000000000B20000005B436F6E
310
74656E745F54797065735D2E786D6C504B01021400140006080800B670623BCA089DFFEC0000007C010000080000000000000000000000000083010000636F72652E786D6C504B01021400140006080800B670623B55019EA25F0000007C000000070000000000000000000000000095020000636E782E786D6C504B010214
310
00140006080800B670623B68FC0B7272010000D40300000C00000000000000000000000000190300006662782F636F72652E786D6C504B01021400140006080800B670623B0F71DDB67E0000009D0000000B00000000000000000000000000B50400006662782F636E782E786D6C504B01021400140006080800B670623BE1
310
34B4FB280100001202000031000000000000000000000000005C0500006662782F38353834323741342D343835462D343034322D383541392D4331303331363839454531452F636F72652E786D6C504B01021400140006080800B670623B1B8617914E010000330300003000000000000000000000000000D3060000666278
310
2F38353834323741342D343835462D343034322D383541392D4331303331363839454531452F636E782E786D6C504B01021400140006080800B670623B5933D422630500003B10000034000000000000000000000000006F0800006662782F38353834323741342D343835462D343034322D383541392D4331303331363839
310
454531452F6F626A656374732E786D6C504B01021400140006080000B670623B0000000000000000000000003500000000000000000000000000240E00006662782F38353834323741342D343835462D343034322D383541392D4331303331363839454531452F76657274696365732E62696E504B01021400140006080800
310
B670623BF270F13306000000040000003600000000000000000000000000770E00006662782F38353834323741342D343835462D343034322D383541392D4331303331363839454531452F747269616E676C65732E62696E504B01021400140006080000B670623B0000000000000000000000003700000000000000000000
310
000000D10E00006662782F38353834323741342D343835462D343034322D383541392D4331303331363839454531452F617474726962757465732E62696E504B01021400140006080800B670623B08DA0BD190000000410100003600000000000000000000000000260F00006662782F38353834323741342D343835462D34
310
3034322D383541392D4331303331363839454531452F6469726563746F72792E786D6C504B01021400140006080800B670623BD9A3B367FE000000A00100003B000000000000000000000000000A1000006662782F38353834323741342D343835462D343034322D383541392D4331303331363839454531452F7265736F75
310
726365732F636F72652E786D6C504B0506000000000E000E0080040000611100000000
  0
XRECORD
  5
113
102
{ACAD_REACTORS
330
110
102
}
330
110
100
AcDbXrecord
280
     1
270
     1
271
     1
  0
XRECORD
  5
114
102
{ACAD_REACTORS
330
110
102
}
330
110
100
AcDbXrecord
280
     1
270
     1
271
     1
  0
XRECORD
  5
DD0
102
{ACAD_REACTORS
330
DCF
102
}
330
DCF
100
AcDbXrecord
280
     1
102
DISPLAYNAME
  1
Imperial24
102
FLAGS
 90
        0
  0
CELLSTYLEMAP
  5
DC5
102
{ACAD_REACTORS
330
104
102
}
330
104
100
AcDbCellStyleMap
 90
        3
300
CELLSTYLE
  1
TABLEFORMAT_BEGIN
 90
        5
170
     1
 91
        0
 92
    32768
 62
   257
 93
        1
300
CONTENTFORMAT
  1
CONTENTFORMAT_BEGIN
 90
        0
 91
        0
 92
      512
 93
        0
300

 40
0.0
140
1.0
 94
        5
 62
     0
340
11
144
0.25
309
CONTENTFORMAT_END
171
     1
301
MARGIN
  1
CELLMARGIN_BEGIN
 40
0.06
 40
0.06
 40
0.06
 40
0.06
 40
0.18
 40
0.18
309
CELLMARGIN_END
 94
        6
 95
        1
302
GRIDFORMAT
  1
GRIDFORMAT_BEGIN
 90
        0
 91
        1
 62
     0
 92
       -2
340
0
 93
        0
 40
0.045
309
GRIDFORMAT_END
 95
        2
302
GRIDFORMAT
  1
GRIDFORMAT_BEGIN
 90
        0
 91
        1
 62
     0
 92
       -2
340
0
 93
        0
 40
0.045
309
GRIDFORMAT_END
 95
        4
302
GRIDFORMAT
  1
GRIDFORMAT_BEGIN
 90
        0
 91
        1
 62
     0
 92
       -2
340
0
 93
        0
 40
0.045
309
GRIDFORMAT_END
 95
        8
302
GRIDFORMAT
  1
GRIDFORMAT_BEGIN
 90
        0
 91
        1
 62
     0
 92
       -2
340
0
 93
        0
 40
0.045
309
GRIDFORMAT_END
 95
       16
302
GRIDFORMAT
  1
GRIDFORMAT_BEGIN
 90
        0
 91
        1
 62
     0
 92
       -2
340
0
 93
        0
 40
0.045
309
GRIDFORMAT_END
 95
       32
302
GRIDFORMAT
  1
GRIDFORMAT_BEGIN
 90
        0
 91
        1
 62
     0
 92
       -2
340
0
 93
        0
 40
0.045
309
GRIDFORMAT_END
309
TABLEFORMAT_END
  1
CELLSTYLE_BEGIN
 90
        1
 91
        1
300
_TITLE
309
CELLSTYLE_END
300
CELLSTYLE
  1
TABLEFORMAT_BEGIN
 90
        5
170
     1
 91
        0
 92
        0
 62
   257
 93
        1
300
CONTENTFORMAT
  1
CONTENTFORMAT_BEGIN
 90
        0
 91
        0
 92
      512
 93
        0
300

 40
0.0
140
1.0
 94
        5
 62
     0
340
11
144
0.18
309
CONTENTFORMAT_END
171
     1
301
MARGIN
  1
CELLMARGIN_BEGIN
 40
0.06
 40
0.06
 40
0.06
 40
0.06
 40
0.18
 40
0.18
309
CELLMARGIN_END
 94
        6
 95
        1
302
GRIDFORMAT
  1
GRIDFORMAT_BEGIN
 90
        0
 91
        1
 62
     0
 92
       -2
340
0
 93
        0
 40
0.045
309
GRIDFORMAT_END
 95
        2
302
GRIDFORMAT
  1
GRIDFORMAT_BEGIN
 90
        0
 91
        1
 62
     0
 92
       -2
340
0
 93
        0
 40
0.045
309
GRIDFORMAT_END
 95
        4
302
GRIDFORMAT
  1
GRIDFORMAT_BEGIN
 90
        0
 91
        1
 62
     0
 92
       -2
340
0
 93
        0
 40
0.045
309
GRIDFORMAT_END
 95
        8
302
GRIDFORMAT
  1
GRIDFORMAT_BEGIN
 90
        0
 91
        1
 62
     0
 92
       -2
340
0
 93
        0
 40
0.045
309
GRIDFORMAT_END
 95
       16
302
GRIDFORMAT
  1
GRIDFORMAT_BEGIN
 90
        0
 91
        1
 62
     0
 92
       -2
340
0
 93
        0
 40
0.045
309
GRIDFORMAT_END
 95
       32
302
GRIDFORMAT
  1
GRIDFORMAT_BEGIN
 90
        0
 91
        1
 62
     0
 92
       -2
340
0
 93
        0
 40
0.045
309
GRIDFORMAT_END
309
TABLEFORMAT_END
  1
CELLSTYLE_BEGIN
 90
        2
 91
        1
300
_HEADER
309
CELLSTYLE_END
300
CELLSTYLE
  1
TABLEFORMAT_BEGIN
 90
        5
170
     1
 91
        0
 92
        0
 62
   257
 93
        1
300
CONTENTFORMAT
  1
CONTENTFORMAT_BEGIN
 90
        0
 91
        0
 92
      512
 93
        0
300

 40
0.0
140
1.0
 94
        2
 62
     0
340
11
144
0.18
309
CONTENTFORMAT_END
171
     1
301
MARGIN
  1
CELLMARGIN_BEGIN
 40
0.06
 40
0.06
 40
0.06
 40
0.06
 40
0.18
 40
0.18
309
CELLMARGIN_END
 94
        6
 95
        1
302
GRIDFORMAT
  1
GRIDFORMAT_BEGIN
 90
        0
 91
        1
 62
     0
 92
       -2
340
0
 93
        0
 40
0.045
309
GRIDFORMAT_END
 95
        2
302
GRIDFORMAT
  1
GRIDFORMAT_BEGIN
 90
        0
 91
        1
 62
     0
 92
       -2
340
0
 93
        0
 40
0.045
309
GRIDFORMAT_END
 95
        4
302
GRIDFORMAT
  1
GRIDFORMAT_BEGIN
 90
        0
 91
        1
 62
     0
 92
       -2
340
0
 93
        0
 40
0.045
309
GRIDFORMAT_END
 95
        8
302
GRIDFORMAT
  1
GRIDFORMAT_BEGIN
 90
        0
 91
        1
 62
     0
 92
       -2
340
0
 93
        0
 40
0.045
309
GRIDFORMAT_END
 95
       16
302
GRIDFORMAT
  1
GRIDFORMAT_BEGIN
 90
        0
 91
        1
 62
     0
 92
       -2
340
0
 93
        0
 40
0.045
309
GRIDFORMAT_END
 95
       32
302
GRIDFORMAT
  1
GRIDFORMAT_BEGIN
 90
        0
 91
        1
 62
     0
 92
       -2
340
0
 93
        0
 40
0.045
309
GRIDFORMAT_END
309
TABLEFORMAT_END
  1
CELLSTYLE_BEGIN
 90
        3
 91
        2
300
_DATA
309
CELLSTYLE_END
  0
ENDSEC
  0
SECTION
  2
ACDSDATA
 70
     2
 71
     8
  0
ACDSSCHEMA
 90
        0
  1
AcDb_Thumbnail_Schema
  2
AcDbDs::ID
280
    10
 91
        8
  2
Thumbnail_Data
280
    15
 91
        0
101
ACDSRECORD
 95
        0
 90
        1
  2
AcDbDs::TreatedAsObjectData
280
     1
291
     1
101
ACDSRECORD
 95
        0
 90
        2
  2
AcDbDs::Legacy
280
     1
291
     1
101
ACDSRECORD
  1
AcDbDs::ID
 90
        3
  2
AcDs:Indexable
280
     1
291
     1
101
ACDSRECORD
  1
AcDbDs::ID
 90
        4
  2
AcDbDs::HandleAttribute
280
     7
282
     1
  0
ACDSSCHEMA
 90
        1
  1
AcDbDs::TreatedAsObjectDataSchema
  2
AcDbDs::TreatedAsObjectData
280
     1
 91
        0
  0
ACDSSCHEMA
 90
        2
  1
AcDbDs::LegacySchema
  2
AcDbDs::Legacy
280
     1
 91
        0
  0
ACDSSCHEMA
 90
        3
  1
AcDbDs::IndexedPropertySchema
  2
AcDs:Indexable
280
     1
 91
        0
  0
ACDSSCHEMA
 90
        4
  1
AcDbDs::HandleAttributeSchema
  2
AcDbDs::HandleAttribute
280
     7
 91
        1
284
     1
  0
ACDSRECORD
 90
        0
  2
AcDbDs::ID
280
    10
320
22
  2
Thumbnail_Data
280
    15
 94
     1613
310
89504E470D0A1A0A0000000D49484452000001000000007208030000008B31FF2A00000300504C5445FFFFFFFFFFFFFFFFFF0000000000000000000000000000000000000000000000000000330000660000990000CC0000FF0033000033330033660033990033CC0033FF0066000066330066660066990066CC0066FF0099
310
000099330099660099990099CC0099FF00CC0000CC3300CC6600CC9900CCCC00CCFF00FF0000FF3300FF6600FF9900FFCC00FFFF3300003300333300663300993300CC3300FF3333003333333333663333993333CC3333FF3366003366333366663366993366CC3366FF3399003399333399663399993399CC3399FF33CC00
310
33CC3333CC6633CC9933CCCC33CCFF33FF0033FF3333FF6633FF9933FFCC33FFFF6600006600336600666600996600CC6600FF6633006633336633666633996633CC6633FF6666006666336666666666996666CC6666FF6699006699336699666699996699CC6699FF66CC0066CC3366CC6666CC9966CCCC66CCFF66FF0066
310
FF3366FF6666FF9966FFCC66FFFF9900009900339900669900999900CC9900FF9933009933339933669933999933CC9933FF9966009966339966669966999966CC9966FF9999009999339999669999999999CC9999FF99CC0099CC3399CC6699CC9999CCCC99CCFF99FF0099FF3399FF6699FF9999FFCC99FFFFCC0000CC00
310
33CC0066CC0099CC00CCCC00FFCC3300CC3333CC3366CC3399CC33CCCC33FFCC6600CC6633CC6666CC6699CC66CCCC66FFCC9900CC9933CC9966CC9999CC99CCCC99FFCCCC00CCCC33CCCC66CCCC99CCCCCCCCCCFFCCFF00CCFF33CCFF66CCFF99CCFFCCCCFFFFFF0000FF0033FF0066FF0099FF00CCFF00FFFF3300FF3333
310
FF3366FF3399FF33CCFF33FFFF6600FF6633FF6666FF6699FF66CCFF66FFFF9900FF9933FF9966FF9999FF99CCFF99FFFFCC00FFCC33FFCC66FFCC99FFCCCCFFCCFFFFFF00FFFF33FFFF66FFFF99FFFFCCFFFFFF0000000D0D0D1A1A1A2828283535354343435050505D5D5D6B6B6B787878868686939393A1A1A1AEAEAEBB
310
BBBBC9C9C9D6D6D6E4E4E4F1F1F1FFFFFF000000000000000000000000000000000000000000000000000000000000AD4AB4E4000001DC4944415478DAEDDC618E82301086E1B90499BBCD61B955FF2F03AD0A1271D9EC8FF6FD9A18138389F3382D651C34FB8731197C084000EC114C809223C35F061360093C1F58800C7C
310
CB000BEE14D8BE7F26C0230DA853600F5057442A40B4058109805F03C800954100021080000420000160C6347D0298A6F12B441F010025426580164101BC5D13C2014A2803042000F259A050ABC28F04A05685D7E01D0FE0F9449D029EDF3F790DF014209F01F0000B011DC00420007A3DC0B78621EE6ED833050A7633584B
310
6264007C06387D1514001E40FB00F85E48000210001EC004C0BC088ABA111A0360FE3540C4503BC1FB00268011A29FE100B3000470E33C28805100E65B00F51A000CB025C11000A77B7CBF0A6D6D0E1907E0D8ED760AB03B683D207A0578896F4BFFE33DA0E7007604E83603BC7DF236FDBFCB802101EC0F00DEFF145800D6
310
2BDAB78E57B78B35C0BA0678C4D700EC8BF80F070D08F04C7B3F6DFE88DDF45F82EF182027C1EB08BF1E67C7F47BF6F78B97E2EAADBDD7C2F4AB2634EED27A9BB100518A0B400068004703C413C05D00C0DFF6054007C82D7C2BE50880D9DD91B56CAF45316A7B4BACE1936FF9CA7B5EE9B7BDABCDDB042000010840000210
310
8000A800FAF70B010840006C0013007AE8EF5F7821FF00F00BE566E2B634D70000000049454E44AE426082304F0C2DC6887C9628228069AAE25AADF218A90A09007871817194FAFA2D1A006019045900007F4B8388E50200731D00609F0675BD65270A808DFE8BC51A1A66A056AE61AABF004030005BF50D80460600FCAA14
310
5E6D19A36A86CE5972A83705710094B2098453E63FB341A466C8012C11F8620DBDEF19433000364AB52985555779301280B205A01A74D1E600E0A51AF6365817FBB5C26481BD05AC8E03B86280DA81D89509E301B02D6BAF00A277833D08CAC7AA30A07C768104101C80DD22E00B5685D002407E71F4766D90CD05DA2D32F0
310
A5028C00CC05C01B04616B24120039004900BC859065017A00CC13F409801C402F85E90110136885103780C5BE5D3A0B200E017920F2F966E9F01690F30209E0BFFBA77E004FFA417A628912F20000000049454E44AE426082
  0
ENDSEC
  0
EOF
